  0
SECTION
  2
HEADER
  9
$ACADVER
  1
AC1015
  9
$ACADMAINTVER
 70
    10
  9
$DWGCODEPAGE
  3
ANSI_932
  9
$INSBASE
 10
0.0
 20
0.0
 30
0.0
  9
$EXTMIN
 10
-111.7214996993199
 20
33.06274441194574
 30
-0.0000000000000043
  9
$EXTMAX
 10
-110.7038100393753
 20
34.05456558574755
 30
0.0000000000000154
  9
$LIMMIN
 10
0.0
 20
0.0
  9
$LIMMAX
 10
100.0
 20
100.0
  9
$ORTHOMODE
 70
     0
  9
$REGENMODE
 70
     1
  9
$FILLMODE
 70
     1
  9
$QTEXTMODE
 70
     0
  9
$MIRRTEXT
 70
     0
  9
$LTSCALE
 40
1.0
  9
$ATTMODE
 70
     1
  9
$TEXTSIZE
 40
0.0
  9
$TRACEWID
 40
0.05
  9
$TEXTSTYLE
  7
STANDARD
  9
$CLAYER
  8
DIM
  9
$CELTYPE
  6
CONTINUOUS
  9
$CECOLOR
 62
   256
  9
$CELTSCALE
 40
1.0
  9
$DISPSILH
 70
     0
  9
$DIMSCALE
 40
1.0
  9
$DIMASZ
 40
0.18
  9
$DIMEXO
 40
0.0625
  9
$DIMDLI
 40
0.38
  9
$DIMRND
 40
0.0
  9
$DIMDLE
 40
0.0
  9
$DIMEXE
 40
0.18
  9
$DIMTP
 40
0.0
  9
$DIMTM
 40
0.0
  9
$DIMTXT
 40
0.18
  9
$DIMCEN
 40
0.09
  9
$DIMTSZ
 40
0.0
  9
$DIMTOL
 70
     0
  9
$DIMLIM
 70
     0
  9
$DIMTIH
 70
     1
  9
$DIMTOH
 70
     1
  9
$DIMSE1
 70
     0
  9
$DIMSE2
 70
     0
  9
$DIMTAD
 70
     0
  9
$DIMZIN
 70
     0
  9
$DIMBLK
  1

  9
$DIMASO
 70
     1
  9
$DIMSHO
 70
     1
  9
$DIMPOST
  1

  9
$DIMAPOST
  1

  9
$DIMALT
 70
     0
  9
$DIMALTD
 70
     2
  9
$DIMALTF
 40
25.4
  9
$DIMLFAC
 40
1.0
  9
$DIMTOFL
 70
     0
  9
$DIMTVP
 40
0.0
  9
$DIMTIX
 70
     0
  9
$DIMSOXD
 70
     0
  9
$DIMSAH
 70
     0
  9
$DIMBLK1
  1

  9
$DIMBLK2
  1

  9
$DIMSTYLE
  2
STANDARD
  9
$DIMCLRD
 70
     0
  9
$DIMCLRE
 70
     0
  9
$DIMCLRT
 70
     0
  9
$DIMTFAC
 40
1.0
  9
$DIMGAP
 40
0.09
  9
$DIMJUST
 70
     0
  9
$DIMSD1
 70
     0
  9
$DIMSD2
 70
     0
  9
$DIMTOLJ
 70
     1
  9
$DIMTZIN
 70
     0
  9
$DIMALTZ
 70
     0
  9
$DIMALTTZ
 70
     0
  9
$DIMUPT
 70
     0
  9
$DIMDEC
 70
     4
  9
$DIMTDEC
 70
     4
  9
$DIMALTU
 70
     2
  9
$DIMALTTD
 70
     2
  9
$DIMTXSTY
  7
STANDARD
  9
$DIMAUNIT
 70
     0
  9
$DIMADEC
 70
     0
  9
$DIMALTRND
 40
0.0
  9
$DIMAZIN
 70
     0
  9
$DIMDSEP
 70
    46
  9
$DIMATFIT
 70
     3
  9
$DIMFRAC
 70
     0
  9
$DIMLDRBLK
  1

  9
$DIMLUNIT
 70
     2
  9
$DIMLWD
 70
    -2
  9
$DIMLWE
 70
    -2
  9
$DIMTMOVE
 70
     0
  9
$LUNITS
 70
     2
  9
$LUPREC
 70
     4
  9
$SKETCHINC
 40
0.1
  9
$FILLETRAD
 40
0.0
  9
$AUNITS
 70
     0
  9
$AUPREC
 70
     0
  9
$MENU
  1
acad
  9
$ELEVATION
 40
0.0
  9
$PELEVATION
 40
0.0
  9
$THICKNESS
 40
0.0
  9
$LIMCHECK
 70
     0
  9
$CHAMFERA
 40
0.0
  9
$CHAMFERB
 40
0.0
  9
$CHAMFERC
 40
0.0
  9
$CHAMFERD
 40
0.0
  9
$SKPOLY
 70
     0
  9
$TDCREATE
 40
2444972.375000000
  9
$TDUCREATE
 40
2444972.000000000
  9
$TDUPDATE
 40
2456381.498121736
  9
$TDUUPDATE
 40
2456381.123121736
  9
$TDINDWG
 40
0.1315172454
  9
$TDUSRTIMER
 40
0.1315172454
  9
$USRTIMER
 70
     1
  9
$ANGBASE
 50
0.0
  9
$ANGDIR
 70
     0
  9
$PDMODE
 70
     0
  9
$PDSIZE
 40
0.0
  9
$PLINEWID
 40
0.0
  9
$SPLFRAME
 70
     0
  9
$SPLINETYPE
 70
     6
  9
$SPLINESEGS
 70
     8
  9
$HANDSEED
  5
2BEC
  9
$SURFTAB1
 70
     6
  9
$SURFTAB2
 70
     6
  9
$SURFTYPE
 70
     6
  9
$SURFU
 70
     6
  9
$SURFV
 70
     6
  9
$UCSBASE
  2

  9
$UCSNAME
  2

  9
$UCSORG
 10
0.0
 20
0.0
 30
0.0
  9
$UCSXDIR
 10
1.0
 20
0.0
 30
0.0
  9
$UCSYDIR
 10
0.0
 20
1.0
 30
0.0
  9
$UCSORTHOREF
  2

  9
$UCSORTHOVIEW
 70
     0
  9
$UCSORGTOP
 10
0.0
 20
0.0
 30
0.0
  9
$UCSORGBOTTOM
 10
0.0
 20
0.0
 30
0.0
  9
$UCSORGLEFT
 10
0.0
 20
0.0
 30
0.0
  9
$UCSORGRIGHT
 10
0.0
 20
0.0
 30
0.0
  9
$UCSORGFRONT
 10
0.0
 20
0.0
 30
0.0
  9
$UCSORGBACK
 10
0.0
 20
0.0
 30
0.0
  9
$PUCSBASE
  2

  9
$PUCSNAME
  2

  9
$PUCSORG
 10
0.0
 20
0.0
 30
0.0
  9
$PUCSXDIR
 10
1.0
 20
0.0
 30
0.0
  9
$PUCSYDIR
 10
0.0
 20
1.0
 30
0.0
  9
$PUCSORTHOREF
  2

  9
$PUCSORTHOVIEW
 70
     0
  9
$PUCSORGTOP
 10
0.0
 20
0.0
 30
0.0
  9
$PUCSORGBOTTOM
 10
0.0
 20
0.0
 30
0.0
  9
$PUCSORGLEFT
 10
0.0
 20
0.0
 30
0.0
  9
$PUCSORGRIGHT
 10
0.0
 20
0.0
 30
0.0
  9
$PUCSORGFRONT
 10
0.0
 20
0.0
 30
0.0
  9
$PUCSORGBACK
 10
0.0
 20
0.0
 30
0.0
  9
$USERI1
 70
     0
  9
$USERI2
 70
     0
  9
$USERI3
 70
     0
  9
$USERI4
 70
     0
  9
$USERI5
 70
     0
  9
$USERR1
 40
0.0
  9
$USERR2
 40
0.0
  9
$USERR3
 40
0.0
  9
$USERR4
 40
0.0
  9
$USERR5
 40
0.0
  9
$WORLDVIEW
 70
     1
  9
$SHADEDGE
 70
     3
  9
$SHADEDIF
 70
    70
  9
$TILEMODE
 70
     1
  9
$MAXACTVP
 70
    16
  9
$PINSBASE
 10
0.0
 20
0.0
 30
0.0
  9
$PLIMCHECK
 70
     0
  9
$PEXTMIN
 10
1.000000000000000E+20
 20
1.000000000000000E+20
 30
1.000000000000000E+20
  9
$PEXTMAX
 10
-1.000000000000000E+20
 20
-1.000000000000000E+20
 30
-1.000000000000000E+20
  9
$PLIMMIN
 10
0.0
 20
0.0
  9
$PLIMMAX
 10
12.0
 20
9.0
  9
$UNITMODE
 70
     0
  9
$VISRETAIN
 70
     0
  9
$PLINEGEN
 70
     1
  9
$PSLTSCALE
 70
     0
  9
$TREEDEPTH
 70
  3020
  9
$CMLSTYLE
  2
STANDARD
  9
$CMLJUST
 70
     0
  9
$CMLSCALE
 40
1.0
  9
$PROXYGRAPHICS
 70
     1
  9
$MEASUREMENT
 70
     0
  9
$CELWEIGHT
370
    -1
  9
$ENDCAPS
280
     0
  9
$JOINSTYLE
280
     0
  9
$LWDISPLAY
290
     0
  9
$INSUNITS
 70
     0
  9
$HYPERLINKBASE
  1

  9
$STYLESHEET
  1
プリンタ.ctb
  9
$XEDIT
290
     1
  9
$CEPSNTYPE
380
     0
  9
$PSTYLEMODE
290
     1
  9
$FINGERPRINTGUID
  2
{7E5E7D33-40A8-4612-AA41-990508750287}
  9
$VERSIONGUID
  2
{040F70E5-441B-4EA9-B4F5-59E72D761BAD}
  9
$EXTNAMES
290
     1
  9
$PSVPSCALE
 40
0.0
  9
$OLESTARTUP
290
     0
  0
ENDSEC
  0
SECTION
  2
CLASSES
  0
CLASS
  1
LWPOLYLINE
  2
AcDbPolyline
  3
AutoCAD 2000
 90
    32768
280
     0
281
     1
  0
CLASS
  1
IMAGE
  2
AcDbRasterImage
  3
ISM
 90
    32895
280
     0
281
     1
  0
CLASS
  1
OLE2FRAME
  2
AcDbOle2Frame
  3
AutoCAD 2000
 90
    32768
280
     0
281
     1
  0
CLASS
  1
HATCH
  2
AcDbHatch
  3
AutoCAD 2000
 90
    32768
280
     0
281
     1
  0
CLASS
  1
DICTIONARYVAR
  2
AcDbDictionaryVar
  3
AutoCAD 2000
 90
        0
280
     0
281
     0
  0
CLASS
  1
RASTERVARIABLES
  2
AcDbRasterVariables
  3
ISM
 90
    32768
280
     0
281
     0
  0
CLASS
  1
IMAGEDEF
  2
AcDbRasterImageDef
  3
ISM
 90
    32768
280
     0
281
     0
  0
CLASS
  1
IMAGEDEF_REACTOR
  2
AcDbRasterImageDefReactor
  3
ISM
 90
    32769
280
     0
281
     0
  0
CLASS
  1
IDBUFFER
  2
AcDbIdBuffer
  3
AutoCAD 2000
 90
    32768
280
     0
281
     0
  0
CLASS
  1
SPATIAL_FILTER
  2
AcDbSpatialFilter
  3
AutoCAD 2000
 90
    32768
280
     0
281
     0
  0
CLASS
  1
XRECORD
  2
AcDbXrecord
  3
AutoCAD 2000
 90
    32768
280
     0
281
     0
  0
CLASS
  1
SORTENTSTABLE
  2
AcDbSortentsTable
  3
AutoCAD 2000
 90
    32768
280
     0
281
     0
  0
CLASS
  1
LAYER_INDEX
  2
AcDbLayerIndex
  3
AutoCAD 2000
 90
    32768
280
     0
281
     0
  0
CLASS
  1
SPATIAL_INDEX
  2
AcDbSpatialIndex
  3
AutoCAD 2000
 90
    32768
280
     0
281
     0
  0
CLASS
  1
OBJECT_PTR
  2
CAseDLPNTableRecord
  3
"ASE-LPNTableRecord"
 90
    32768
280
     0
281
     0
  0
CLASS
  1
LAYOUT
  2
AcDbLayout
  3
AutoCAD 2000
 90
        0
280
     0
281
     0
  0
CLASS
  1
PLOTSETTINGS
  2
AcDbPlotSettings
  3
AutoCAD 2000
 90
    32768
280
     0
281
     0
  0
CLASS
  1
ACDBDICTIONARYWDFLT
  2
AcDbDictionaryWithDefault
  3
AutoCAD 2000
 90
        0
280
     0
281
     0
  0
CLASS
  1
ACDBPLACEHOLDER
  2
AcDbPlaceHolder
  3
AutoCAD 2000
 90
        0
280
     0
281
     0
  0
CLASS
  1
VBA_PROJECT
  2
AcDbVbaProject
  3
acad
 90
    32768
280
     0
281
     0
  0
CLASS
  1
WIPEOUT
  2
AcDbWipeout
  3
"WipeOut|Product Desc: Object Enabler for WipeOut entity^I^I^I^I^I^I|Company: Autodesk, Inc.^I^I^I^I^I^I|WEB Address: www.autodesk.com"
 90
    32895
280
     0
281
     1
  0
CLASS
  1
WIPEOUTVARIABLES
  2
AcDbWipeoutVariables
  3
"WipeOut|Product Desc:     WipeOut Dbx Application|Company:          Autodesk, Inc.|WEB Address:      www.autodesk.com"
 90
    32768
280
     0
281
     0
  0
CLASS
  1
RTEXT
  2
RText
  3
RText|AutoCAD Express Tool|expresstools@autodesk.com
 90
    32768
280
     0
281
     1
  0
CLASS
  1
ARCALIGNEDTEXT
  2
AcDbArcAlignedText
  3
ATEXT|AutoCAD Express Tool|expresstools@autodesk.com
 90
    32768
280
     0
281
     1
  0
CLASS
  1
LONG_TRANSACTION
  2
AcDbLongTransaction
  3
AutoCAD 2000
 90
    32768
280
     0
281
     0
  0
CLASS
  1
LWPOLYLINE
  2
AcDbPolyline
  3
AutoCAD 2000
 90
    32768
280
     0
281
     1
  0
CLASS
  1
HATCH
  2
AcDbHatch
  3
AutoCAD 2000
 90
    32768
280
     0
281
     1
  0
CLASS
  1
XRECORD
  2
AcDbXrecord
  3
AutoCAD 2000
 90
    32768
280
     0
281
     0
  0
CLASS
  1
LONG_TRANSACTION
  2
AcDbLongTransaction
  3
AutoCAD 2000
 90
    32768
280
     0
281
     0
  0
CLASS
  1
LWPOLYLINE
  2
AcDbPolyline
  3
AutoCAD 2000
 90
    32768
280
     0
281
     1
  0
CLASS
  1
HATCH
  2
AcDbHatch
  3
AutoCAD 2000
 90
    32768
280
     0
281
     1
  0
CLASS
  1
XRECORD
  2
AcDbXrecord
  3
AutoCAD 2000
 90
    32768
280
     0
281
     0
  0
CLASS
  1
MATERIAL
  2
AcDbMaterial
  3
ObjectDBX Classes
 90
        0
280
     0
281
     0
  0
CLASS
  1
VISUALSTYLE
  2
AcDbVisualStyle
  3
ObjectDBX Classes
 90
     4095
280
     0
281
     0
  0
CLASS
  1
TABLESTYLE
  2
AcDbTableStyle
  3
ObjectDBX Classes
 90
     2047
280
     0
281
     0
  0
ENDSEC
  0
SECTION
  2
TABLES
  0
TABLE
  2
VPORT
  5
7
102
{ACAD_XDICTIONARY
360
802
102
}
330
0
100
AcDbSymbolTable
 70
     2
  0
VPORT
  5
2BEB
330
7
100
AcDbSymbolTableRecord
100
AcDbViewportTableRecord
  2
*Active
 70
     0
 10
0.0
 20
0.0
 11
1.0
 21
1.0
 12
-111.2126548693476
 22
33.55865499884664
 13
0.0
 23
0.0
 14
1.0
 24
1.0
 15
0.0
 25
0.0
 16
0.0
 26
0.0
 36
1.0
 17
0.0
 27
0.0
 37
0.0
 40
1.000074886759932
 41
1.747222222222222
 42
50.0
 43
0.0
 44
0.0
 50
0.0
 51
0.0
 71
     0
 72
   100
 73
     1
 74
     0
 75
     0
 76
     0
 77
     0
 78
     0
281
     0
 65
     1
110
0.0
120
0.0
130
0.0
111
1.0
121
0.0
131
0.0
112
0.0
122
1.0
132
0.0
 79
     0
146
0.0
  0
ENDTAB
  0
TABLE
  2
LTYPE
  5
4
330
0
100
AcDbSymbolTable
 70
     3
  0
LTYPE
  5
11
330
4
100
AcDbSymbolTableRecord
100
AcDbLinetypeTableRecord
  2
BYBLOCK
 70
     0
  3

 72
    65
 73
     0
 40
0.0
  0
LTYPE
  5
12
330
4
100
AcDbSymbolTableRecord
100
AcDbLinetypeTableRecord
  2
BYLAYER
 70
     0
  3

 72
    65
 73
     0
 40
0.0
  0
LTYPE
  5
13
330
4
100
AcDbSymbolTableRecord
100
AcDbLinetypeTableRecord
  2
CONTINUOUS
 70
     0
  3
Solid line
 72
    65
 73
     0
 40
0.0
  0
LTYPE
  5
14E8
330
4
100
AcDbSymbolTableRecord
100
AcDbLinetypeTableRecord
  2
PHANTOM
 70
     0
  3
Phantom ______  __  __  ______  __  __  ______
 72
    65
 73
     6
 40
12.7
 49
6.349999999999999
 74
     0
 49
-1.27
 74
     0
 49
1.27
 74
     0
 49
-1.27
 74
     0
 49
1.27
 74
     0
 49
-1.27
 74
     0
  0
LTYPE
  5
14EA
330
4
100
AcDbSymbolTableRecord
100
AcDbLinetypeTableRecord
  2
CENTERX2
 70
     0
  3
Center (2x) ________  __  ________  __  _____
 72
    65
 73
     4
 40
20.32
 49
12.7
 74
     0
 49
-2.54
 74
     0
 49
2.54
 74
     0
 49
-2.54
 74
     0
  0
ENDTAB
  0
TABLE
  2
LAYER
  5
2
102
{ACAD_XDICTIONARY
360
C88
102
}
330
0
100
AcDbSymbolTable
 70
     5
  0
LAYER
  5
14
102
{ACAD_XDICTIONARY
360
806
102
}
330
2
100
AcDbSymbolTableRecord
100
AcDbLayerTableRecord
  2
0
 70
     0
 62
     7
  6
CONTINUOUS
370
    -3
390
770
  0
LAYER
  5
8A5
330
2
100
AcDbSymbolTableRecord
100
AcDbLayerTableRecord
  2
DIM
 70
     0
 62
     3
  6
CONTINUOUS
370
    -3
390
770
  0
LAYER
  5
8A6
330
2
100
AcDbSymbolTableRecord
100
AcDbLayerTableRecord
  2
DEFPOINTS
 70
     0
 62
     7
  6
CONTINUOUS
290
     0
370
    -3
390
770
  0
LAYER
  5
C94
330
2
100
AcDbSymbolTableRecord
100
AcDbLayerTableRecord
  2
001
 70
     0
 62
     7
  6
CONTINUOUS
370
    -3
390
770
  0
LAYER
  5
C95
330
2
100
AcDbSymbolTableRecord
100
AcDbLayerTableRecord
  2
002
 70
     0
 62
     7
  6
CONTINUOUS
370
    -3
390
770
  0
ENDTAB
  0
TABLE
  2
STYLE
  5
3
330
0
100
AcDbSymbolTable
 70
     1
  0
STYLE
  5
17
330
3
100
AcDbSymbolTableRecord
100
AcDbTextStyleTableRecord
  2
STANDARD
 70
     0
 40
0.0
 41
0.8
 50
0.0
 71
     0
 42
0.0
  3
txt.shx
  4
extfont.shx
  0
ENDTAB
  0
TABLE
  2
VIEW
  5
5
330
0
100
AcDbSymbolTable
 70
     0
  0
ENDTAB
  0
TABLE
  2
UCS
  5
6
330
0
100
AcDbSymbolTable
 70
     0
  0
ENDTAB
  0
TABLE
  2
APPID
  5
8
330
0
100
AcDbSymbolTable
 70
    17
  0
APPID
  5
16
330
8
100
AcDbSymbolTableRecord
100
AcDbRegAppTableRecord
  2
ACAD
 70
     0
  0
APPID
  5
8AA
330
8
100
AcDbSymbolTableRecord
100
AcDbRegAppTableRecord
  2
ACAD_DSTYLE_DIMRADIAL_EXTENSION
 70
     0
  0
APPID
  5
D4A
330
8
100
AcDbSymbolTableRecord
100
AcDbRegAppTableRecord
  2
DCO15
 70
     0
  0
APPID
  5
D4B
330
8
100
AcDbSymbolTableRecord
100
AcDbRegAppTableRecord
  2
ACAD_EXEMPT_FROM_CAD_STANDARDS
 70
     0
  0
APPID
  5
D4C
330
8
100
AcDbSymbolTableRecord
100
AcDbRegAppTableRecord
  2
ACAD_DSTYLE_DIMTEXT_FILL
 70
     0
  0
APPID
  5
D4D
330
8
100
AcDbSymbolTableRecord
100
AcDbRegAppTableRecord
  2
ACAD_DSTYLE_DIMEXT_LENGTH
 70
     0
  0
APPID
  5
D4E
330
8
100
AcDbSymbolTableRecord
100
AcDbRegAppTableRecord
  2
ACAD_DSTYLE_DIMEXT_ENABLED
 70
     0
  0
APPID
  5
D4F
330
8
100
AcDbSymbolTableRecord
100
AcDbRegAppTableRecord
  2
ACAD_DSTYLE_DIM_LINETYPE
 70
     0
  0
APPID
  5
D50
330
8
100
AcDbSymbolTableRecord
100
AcDbRegAppTableRecord
  2
ACAD_DSTYLE_DIM_EXT1_LINETYPE
 70
     0
  0
APPID
  5
D51
330
8
100
AcDbSymbolTableRecord
100
AcDbRegAppTableRecord
  2
ACAD_DSTYLE_DIM_EXT2_LINETYPE
 70
     0
  0
APPID
  5
D52
330
8
100
AcDbSymbolTableRecord
100
AcDbRegAppTableRecord
  2
ACAD_DSTYLE_DIMJOGGED_JOGANGLE_SYMBOL
 70
     0
  0
APPID
  5
D53
330
8
100
AcDbSymbolTableRecord
100
AcDbRegAppTableRecord
  2
ACAD_DSTYLE_DIMARC_LENGTH_SYMBOL
 70
     0
  0
APPID
  5
D54
330
8
100
AcDbSymbolTableRecord
100
AcDbRegAppTableRecord
  2
ACAD_PSEXT
 70
     0
  0
APPID
  5
D55
330
8
100
AcDbSymbolTableRecord
100
AcDbRegAppTableRecord
  2
ACAD_MLEADERVER
 70
     0
  0
APPID
  5
D56
330
8
100
AcDbSymbolTableRecord
100
AcDbRegAppTableRecord
  2
ACAD_DSTYLE_DIMJAG
 70
     0
  0
APPID
  5
D57
330
8
100
AcDbSymbolTableRecord
100
AcDbRegAppTableRecord
  2
ACAD_DSTYLE_DIMTALN
 70
     0
  0
APPID
  5
D58
330
8
100
AcDbSymbolTableRecord
100
AcDbRegAppTableRecord
  2
AcadStringInfo
 70
     0
  0
ENDTAB
  0
TABLE
  2
DIMSTYLE
  5
9
330
0
100
AcDbSymbolTable
 70
     1
100
AcDbDimStyleTable
 71
     0
  0
DIMSTYLE
105
18
330
9
100
AcDbSymbolTableRecord
100
AcDbDimStyleTableRecord
  2
STANDARD
 70
     0
340
17
  0
ENDTAB
  0
TABLE
  2
BLOCK_RECORD
  5
1
330
0
100
AcDbSymbolTable
 70
     1
  0
BLOCK_RECORD
  5
A
102
{ACAD_XDICTIONARY
360
767
102
}
330
1
100
AcDbSymbolTableRecord
100
AcDbBlockTableRecord
  2
*MODEL_SPACE
340
771
  0
BLOCK_RECORD
  5
B
102
{ACAD_XDICTIONARY
360
769
102
}
330
1
100
AcDbSymbolTableRecord
100
AcDbBlockTableRecord
  2
*PAPER_SPACE
340
772
  0
BLOCK_RECORD
  5
D2D
330
1
100
AcDbSymbolTableRecord
100
AcDbBlockTableRecord
  2
SDI2HDMI BOARD
340
0
102
{BLKREFS
331
12CF
102
}
  0
ENDTAB
  0
ENDSEC
  0
SECTION
  2
BLOCKS
  0
BLOCK
  5
D
330
A
100
AcDbEntity
  8
0
100
AcDbBlockBegin
  2
*MODEL_SPACE
 70
     0
 10
0.0
 20
0.0
 30
0.0
  3
*MODEL_SPACE
  1

  0
ENDBLK
  5
E
330
A
100
AcDbEntity
  8
0
100
AcDbBlockEnd
  0
BLOCK
  5
F
330
B
100
AcDbEntity
 67
     1
  8
0
100
AcDbBlockBegin
  2
*PAPER_SPACE
 70
     0
 10
0.0
 20
0.0
 30
0.0
  3
*PAPER_SPACE
  1

  0
ENDBLK
  5
10
330
B
100
AcDbEntity
 67
     1
  8
0
100
AcDbBlockEnd
  0
BLOCK
  5
D2E
330
D2D
100
AcDbEntity
  8
0
100
AcDbBlockBegin
  2
SDI2HDMI BOARD
 70
     0
 10
0.0
 20
0.0
 30
0.0
  3
SDI2HDMI BOARD
  1

  0
ENDBLK
  5
D2F
330
D2D
100
AcDbEntity
  8
0
100
AcDbBlockEnd
  0
ENDSEC
  0
SECTION
  2
ENTITIES
  0
LINE
  5
A6
330
A
100
AcDbEntity
  8
002
100
AcDbLine
 10
-111.7167008026565
 20
33.96843683327075
 30
0.0
 11
-110.7167008026565
 21
33.96843683327075
 31
0.0
  0
LINE
  5
A5
330
A
100
AcDbEntity
  8
002
100
AcDbLine
 10
-111.5167004563146
 20
34.04843749132043
 30
0.0
 11
-111.5167004563146
 21
33.96843683327075
 31
0.0
  0
LINE
  5
A3
330
A
100
AcDbEntity
  8
002
100
AcDbLine
 10
-110.8167001099727
 20
33.26844419206761
 30
0.0
 11
-110.8167001099727
 21
33.06844557743535
 31
0.0
  0
LINE
  5
A2
330
A
100
AcDbEntity
  8
002
100
AcDbLine
 10
-111.6167006294856
 20
33.26844419206761
 30
0.0
 11
-111.6167006294856
 21
33.06844557743535
 31
0.0
  0
LINE
  5
A0
330
A
100
AcDbEntity
  8
002
100
AcDbLine
 10
-111.6167006294856
 20
33.22844343011535
 30
0.0
 11
-110.8167001099727
 21
33.22844343011535
 31
0.0
  0
LINE
  5
9F
330
A
100
AcDbEntity
  8
002
100
AcDbLine
 10
-111.6167006294856
 20
33.18844439987277
 30
0.0
 11
-110.8167001099727
 21
33.18844439987277
 31
0.0
  0
LINE
  5
9E
330
A
100
AcDbEntity
  8
002
100
AcDbLine
 10
-111.6167006294856
 20
33.14844363792051
 30
0.0
 11
-110.8167001099727
 21
33.14844363792051
 31
0.0
  0
LINE
  5
9D
330
A
100
AcDbEntity
  8
002
100
AcDbLine
 10
-111.4617004909488
 20
33.26844419206761
 30
0.0
 11
-111.4617004909488
 21
33.06844557743536
 31
0.0
  0
LINE
  5
9C
330
A
100
AcDbEntity
  8
002
100
AcDbLine
 10
-111.6167006294856
 20
33.26844419206761
 30
0.0
 11
-110.8167001099727
 21
33.26844419206761
 31
0.0
  0
TEXT
  5
26B
330
A
100
AcDbEntity
  8
002
  6
Continuous
100
AcDbText
 10
-111.4401987176781
 20
33.19594785414894
 30
0.0
 40
0.024999993243562
  1
圧延鋼板アルミ合金
 41
0.7
100
AcDbText
  0
TEXT
  5
4D4
330
A
100
AcDbEntity
  8
002
  6
Continuous
100
AcDbText
 10
-110.9018730090015
 20
33.92593721424688
 30
0.0
 40
0.024999993243562
  1
WH-21
 41
0.8
100
AcDbText
  0
TEXT
  5
4D5
330
A
100
AcDbEntity
  8
002
  6
Continuous
100
AcDbText
 10
-111.4229223160323
 20
33.98843721424688
 30
0.0
 40
0.0399999901963199
  1
天井／壁付金具
 41
0.8
100
AcDbText
  0
TEXT
  5
4D7
330
A
100
AcDbEntity
  8
002
  6
Continuous
100
AcDbText
 10
-111.445034516966
 20
33.23594688439151
 30
0.0
 40
0.024999993243562
  1
壁面／天井用（伸縮なし 長さ２４２ｍｍ）
 41
0.7
100
AcDbText
  0
TEXT
  5
4D9
330
A
100
AcDbEntity
  8
002
  6
Continuous
100
AcDbText
 10
-111.4405883523566
 20
33.15594709219667
 30
0.0
 40
0.024999993243562
  1
前後＋９０°～－２０° 回転３６０°
 41
0.6
100
AcDbText
  0
TEXT
  5
4DA
330
A
100
AcDbEntity
  8
002
  6
Continuous
100
AcDbText
 10
-111.5975738960442
 20
33.19594785414894
 30
0.0
 40
0.024999993243562
  1
材　　質
 41
0.8
100
AcDbText
  0
TEXT
  5
4DC
330
A
100
AcDbEntity
  8
002
  6
Continuous
100
AcDbText
 10
-111.5975738960442
 20
33.15594709219667
 30
0.0
 40
0.024999993243562
  1
最大回転角度
 41
0.75
100
AcDbText
  0
TEXT
  5
4DD
330
A
100
AcDbEntity
  8
002
  6
Continuous
100
AcDbText
 10
-111.5975738960442
 20
33.23594688439151
 30
0.0
 40
0.024999993243562
  1
設置条件
 41
0.8
100
AcDbText
  0
LINE
  5
651
330
A
100
AcDbEntity
  8
002
100
AcDbLine
 10
-111.6167006294856
 20
33.06844557743535
 30
0.0
 11
-110.8167001099727
 21
33.06844557743535
 31
0.0
  0
TEXT
  5
67A
330
A
100
AcDbEntity
  8
002
  6
Continuous
100
AcDbText
 10
-111.4405879452688
 20
33.11594808315973
 30
0.0
 40
0.0249999769310372
  1
４Ｋｇ／約０．３４Ｋｇ
 41
0.7
100
AcDbText
  0
TEXT
  5
67D
330
A
100
AcDbEntity
  8
002
  6
Continuous
100
AcDbText
 10
-111.5975733865231
 20
33.11594721730546
 30
0.0
 40
0.0249999769310372
  1
最大搭載荷重/重量
 41
0.5
100
AcDbText
  0
LINE
  5
74E
330
A
100
AcDbEntity
  8
002
100
AcDbLine
 10
-111.6167006294856
 20
33.10844460767793
 30
0.0
 11
-110.8167001099727
 21
33.10844460767793
 31
0.0
  0
INSERT
  5
12CF
330
A
100
AcDbEntity
  8
0
  6
Continuous
100
AcDbBlockReference
  2
SDI2HDMI BOARD
 10
-4275.899559001942
 20
802.2038705106574
 30
0.0
  0
LINE
  5
2752
330
A
100
AcDbEntity
  8
001
  6
Continuous
370
    15
100
AcDbLine
 10
-111.5195914294704
 20
33.76856521389209
 30
0.0
 11
-111.5183979023381
 21
33.75533629826033
 31
0.0
  0
LINE
  5
2753
330
A
100
AcDbEntity
  8
001
  6
Continuous
370
    15
100
AcDbLine
 10
-111.5107849735901
 20
33.75533629826033
 30
0.0
 11
-111.5095914278314
 21
33.76856521389209
 31
0.0
  0
LINE
  5
2754
330
A
100
AcDbEntity
  8
001
  6
Continuous
370
    15
100
AcDbLine
 10
-111.5106414381549
 20
33.77981519943784
 30
0.0
 11
-111.5106414381549
 21
33.78519021591859
 31
0.0
  0
LINE
  5
2755
330
A
100
AcDbEntity
  8
001
  6
Continuous
370
    15
100
AcDbLine
 10
-111.5185414377734
 20
33.78519021591859
 30
0.0
 11
-111.5185414377734
 21
33.77981519943784
 31
0.0
  0
LINE
  5
2756
330
A
100
AcDbEntity
  8
001
  6
Continuous
370
    15
100
AcDbLine
 10
-111.5106414381549
 20
33.78519021591859
 30
0.0
 11
-111.5115164343401
 21
33.78606521210383
 31
0.0
  0
LINE
  5
2757
330
A
100
AcDbEntity
  8
001
  6
Continuous
370
    15
100
AcDbLine
 10
-111.5176664415882
 20
33.78606521210383
 30
0.0
 11
-111.5185414377734
 21
33.78519021591859
 31
0.0
  0
LINE
  5
2758
330
A
100
AcDbEntity
  8
001
  6
Continuous
370
    15
100
AcDbLine
 10
-111.5009069007024
 20
33.73794021702134
 30
0.0
 11
-111.5011802066251
 21
33.75359792879534
 31
0.0
  0
LINE
  5
2759
330
A
100
AcDbEntity
  8
001
  6
Continuous
370
    15
100
AcDbLine
 10
-111.5280026693031
 20
33.75359792879534
 30
0.0
 11
-111.5282759938524
 21
33.73794021702134
 31
0.0
  0
ARC
  5
275A
330
A
100
AcDbEntity
  8
001
  6
Continuous
370
    15
100
AcDbCircle
 10
-111.5261279595719
 20
33.75356520802109
 30
0.0
 40
0.0018750000000001
100
AcDbArc
 50
90.0
 51
178.9999999998003
  0
ARC
  5
275B
330
A
100
AcDbEntity
  8
001
  6
Continuous
370
    15
100
AcDbCircle
 10
-111.5030549145681
 20
33.75356520802109
 30
0.0
 40
0.0018750000000001
100
AcDbArc
 50
1.000000000199658
 51
90.0
  0
LINE
  5
275C
330
A
100
AcDbEntity
  8
001
  6
Continuous
370
    15
100
AcDbLine
 10
-111.4958414372191
 20
33.77881520113659
 30
0.0
 11
-111.4958414372191
 21
33.77981519943784
 31
0.0
  0
LINE
  5
275D
330
A
100
AcDbEntity
  8
001
  6
Continuous
370
    15
100
AcDbLine
 10
-111.5333414200826
 20
33.77981519943784
 30
0.0
 11
-111.5333414200826
 21
33.77881520113659
 31
0.0
  0
LINE
  5
275E
330
A
100
AcDbEntity
  8
001
  6
Continuous
370
    15
100
AcDbLine
 10
-111.5360914293811
 20
33.73044020182209
 30
0.0
 11
-111.5463142965121
 21
33.72954581550083
 31
0.0
  0
LINE
  5
275F
330
A
100
AcDbEntity
  8
001
  6
Continuous
370
    15
100
AcDbLine
 10
-111.5360914293811
 20
33.71294020361033
 30
0.0
 11
-111.5347760293766
 21
33.71300914010733
 31
0.0
  0
LINE
  5
2760
330
A
100
AcDbEntity
  8
001
  6
Continuous
370
    15
100
AcDbLine
 10
-111.5347760293766
 20
33.73037126532508
 30
0.0
 11
-111.5360914293811
 21
33.73044020182209
 31
0.0
  0
ARC
  5
2761
330
A
100
AcDbEntity
  8
001
  6
Continuous
370
    15
100
AcDbCircle
 10
-111.5348414370701
 20
33.72912298286434
 30
0.0
 40
0.00125
100
AcDbArc
 50
0.0
 51
87.00000000000009
  0
ARC
  5
2762
330
A
100
AcDbEntity
  8
001
  6
Continuous
370
    15
100
AcDbCircle
 10
-111.5348414370701
 20
33.71425743317758
 30
0.0
 40
0.00125
100
AcDbArc
 50
272.9999999999999
 51
0.0
  0
SPLINE
  5
2763
330
A
100
AcDbEntity
  8
001
  6
Continuous
370
    15
100
AcDbSpline
210
0.0
220
0.0
230
1.0
 70
     8
 71
     3
 72
    11
 73
     7
 74
     0
 42
0.0000000001
 43
0.0000000001
 40
0.0
 40
0.0
 40
0.0
 40
0.0
 40
0.2361924958150037
 40
0.4875036462092653
 40
0.7453101706152366
 40
1.0
 40
1.0
 40
1.0
 40
1.0
 10
-111.5463027853652
 20
33.72954678407628
 30
0.0
 10
-111.5464099186494
 20
33.72953026637659
 30
0.0
 10
-111.546631042807
 20
33.72949617368115
 30
0.0
 10
-111.5469352544695
 20
33.7293326075719
 30
0.0
 10
-111.5471978055992
 20
33.72909444855431
 30
0.0
 10
-111.5473056225511
 20
33.72888516688572
 30
0.0
 10
-111.5473592031881
 20
33.72878116241414
 30
0.0
  0
SPLINE
  5
2764
330
A
100
AcDbEntity
  8
001
  6
Continuous
370
    15
100
AcDbSpline
210
0.0
220
0.0
230
1.0
 70
     8
 71
     3
 72
    15
 73
    11
 74
     0
 42
0.0000000001
 43
0.0000000001
 40
0.0
 40
0.0
 40
0.0
 40
0.0
 40
0.1270092409326523
 40
0.253503449230124
 40
0.3794776428630311
 40
0.504830619779415
 40
0.6293195729250492
 40
0.753329335649063
 40
0.8768471950194886
 40
1.0
 40
1.0
 40
1.0
 40
1.0
 10
-111.5473592031881
 20
33.72878116241414
 30
0.0
 10
-111.5473645881064
 20
33.72873748415892
 30
0.0
 10
-111.5473753361068
 20
33.72865030476729
 30
0.0
 10
-111.547414384843
 20
33.72807769726536
 30
0.0
 10
-111.5474686516919
 20
33.72721034665085
 30
0.0
 10
-111.5475369580676
 20
33.72607267249939
 30
0.0
 10
-111.5476162480488
 20
33.72472164980903
 30
0.0
 10
-111.5477020990954
 20
33.72324041445121
 30
0.0
 10
-111.5477910670963
 20
33.72169157298273
 30
0.0
 10
-111.5478487690524
 20
33.72068230913803
 30
0.0
 10
-111.5478775773331
 20
33.72017842403371
 30
0.0
  0
SPLINE
  5
2765
330
A
100
AcDbEntity
  8
001
  6
Continuous
370
    15
100
AcDbSpline
210
0.0
220
0.0
230
1.0
 70
     8
 71
     3
 72
     9
 73
     5
 74
     0
 42
0.0000000001
 43
0.0000000001
 40
0.0
 40
0.0
 40
0.0
 40
0.0
 40
0.5103958374496802
 40
1.0
 40
1.0
 40
1.0
 40
1.0
 10
-111.5487178910657
 20
33.68420448771436
 30
0.0
 10
-111.5486945890363
 20
33.68420765345868
 30
0.0
 10
-111.5486489342175
 20
33.68421385598639
 30
0.0
 10
-111.5485568787476
 20
33.68424966884962
 30
0.0
 10
-111.5485118080064
 20
33.68426720297653
 30
0.0
  0
LINE
  5
2766
330
A
100
AcDbEntity
  8
001
  6
Continuous
370
    15
100
AcDbLine
 10
-111.5335914243146
 20
33.71737771353433
 30
0.0
 11
-111.5325914446399
 21
33.71737771353433
 31
0.0
  0
LINE
  5
2767
330
A
100
AcDbEntity
  8
001
  6
Continuous
370
    15
100
AcDbLine
 10
-111.5325914446399
 20
33.72600271052434
 30
0.0
 11
-111.5335914243146
 21
33.72600271052434
 31
0.0
  0
LINE
  5
2768
330
A
100
AcDbEntity
  8
001
  6
Continuous
370
    15
100
AcDbLine
 10
-111.4967228781566
 20
33.72140635422184
 30
0.0
 11
-111.4967164334044
 21
33.72169020271609
 31
0.0
  0
ARC
  5
2769
330
A
100
AcDbEntity
  8
001
  6
Continuous
370
    15
100
AcDbCircle
 10
-111.5012604851751
 20
33.76631520802109
 30
0.0
 40
0.00625
100
AcDbArc
 50
90.0
 51
158.8998039758999
  0
ARC
  5
276A
330
A
100
AcDbEntity
  8
001
  6
Continuous
370
    15
100
AcDbCircle
 10
-111.5279223889649
 20
33.76631520802109
 30
0.0
 40
0.00625
100
AcDbArc
 50
21.10019602410008
 51
90.0
  0
LINE
  5
276B
330
A
100
AcDbEntity
  8
001
  6
Continuous
370
    15
100
AcDbLine
 10
-111.4925539244099
 20
33.77316177508559
 30
0.0
 11
-111.4927040536091
 21
33.77730807906709
 31
0.0
  0
LINE
  5
276C
330
A
100
AcDbEntity
  8
001
  6
Continuous
370
    15
100
AcDbLine
 10
-111.5364788223191
 20
33.77730807906709
 30
0.0
 11
-111.5366280201956
 21
33.77318768447958
 31
0.0
  0
LINE
  5
276D
330
A
100
AcDbEntity
  8
001
  6
Continuous
370
    15
100
AcDbLine
 10
-111.5366280201956
 20
33.77318762860009
 30
0.0
 11
-111.5366289515181
 21
33.77316177508559
 31
0.0
  0
LINE
  5
276E
330
A
100
AcDbEntity
  8
001
  6
Continuous
370
    15
100
AcDbLine
 10
-111.5366279829426
 20
33.77318764722658
 30
0.0
 11
-111.5366289142654
 21
33.77316177508559
 31
0.0
  0
LINE
  5
276F
330
A
100
AcDbEntity
  8
001
  6
Continuous
370
    15
100
AcDbLine
 10
-111.4925539244099
 20
33.77316177508559
 30
0.0
 11
-111.4925548557326
 21
33.77318762860009
 31
0.0
  0
LINE
  5
2770
330
A
100
AcDbEntity
  8
001
  6
Continuous
370
    15
100
AcDbLine
 10
-111.4925548557326
 20
33.77318768447958
 30
0.0
 11
-111.4927040536091
 21
33.77730807906709
 31
0.0
  0
ARC
  5
2771
330
A
100
AcDbEntity
  8
001
  6
Continuous
370
    15
100
AcDbCircle
 10
-111.5300914370701
 20
33.73544020802109
 30
0.0
 40
0.0025
100
AcDbArc
 50
90.0
 51
180.0
  0
ARC
  5
2772
330
A
100
AcDbEntity
  8
001
  6
Continuous
370
    15
100
AcDbCircle
 10
-111.4990914370701
 20
33.73544020802109
 30
0.0
 40
0.0025
100
AcDbArc
 50
0.0
 51
90.0
  0
LINE
  5
2773
330
A
100
AcDbEntity
  8
001
  6
Continuous
370
    15
100
AcDbLine
 10
-111.4965914312884
 20
33.72409713140459
 30
0.0
 11
-111.4965914312884
 21
33.73544021195483
 31
0.0
  0
LINE
  5
2774
330
A
100
AcDbEntity
  8
001
  6
Continuous
370
    15
100
AcDbLine
 10
-111.4965914312884
 20
33.71260785183634
 30
0.0
 11
-111.4965914312884
 21
33.71928329265434
 31
0.0
  0
LINE
  5
2775
330
A
100
AcDbEntity
  8
001
  6
Continuous
370
    15
100
AcDbLine
 10
-111.4965914312884
 20
33.70731520152409
 30
0.0
 11
-111.4965914312884
 21
33.70952256641109
 31
0.0
  0
LINE
  5
2776
330
A
100
AcDbEntity
  8
001
  6
Continuous
370
    15
100
AcDbLine
 10
-111.5325914446399
 20
33.71736724546858
 30
0.0
 11
-111.5325914446399
 21
33.70731520152409
 31
0.0
  0
LINE
  5
2777
330
A
100
AcDbEntity
  8
001
  6
Continuous
370
    15
100
AcDbLine
 10
-111.5325914446399
 20
33.73544021195483
 30
0.0
 11
-111.5325914446399
 21
33.72601317859008
 31
0.0
  0
LINE
  5
2778
330
A
100
AcDbEntity
  8
001
  6
Continuous
370
    15
100
AcDbLine
 10
-111.5325914446399
 20
33.70731520152409
 30
0.0
 11
-111.5319664526864
 21
33.70669020957083
 31
0.0
  0
LINE
  5
2779
330
A
100
AcDbEntity
  8
001
  6
Continuous
370
    15
100
AcDbLine
 10
-111.4972164418681
 20
33.70669020957083
 30
0.0
 11
-111.4965914312884
 21
33.70731520152409
 31
0.0
  0
LINE
  5
277A
330
A
100
AcDbEntity
  8
001
  6
Continuous
370
    15
100
AcDbLine
 10
-111.2120914371294
 20
33.59894020634458
 30
0.0
 11
-111.2145914371026
 21
33.59894020634458
 31
0.0
  0
LINE
  5
277B
330
A
100
AcDbEntity
  8
001
  6
Continuous
370
    15
100
AcDbLine
 10
-111.2145914371026
 20
33.44894020969734
 30
0.0
 11
-111.2120914371294
 21
33.44894020969734
 31
0.0
  0
LINE
  5
277C
330
A
100
AcDbEntity
  8
001
  6
Continuous
370
    15
100
AcDbLine
 10
-111.2145914371026
 20
33.49458129063934
 30
0.0
 11
-111.2171489222341
 21
33.49306351423958
 31
0.0
  0
SPLINE
  5
277D
330
A
100
AcDbEntity
  8
001
  6
Continuous
370
    15
100
AcDbSpline
210
0.0
220
0.0
230
1.0
 70
     8
 71
     3
 72
    11
 73
     7
 74
     0
 42
0.0000000001
 43
0.0000000001
 40
0.0
 40
0.0
 40
0.0
 40
0.0
 40
0.2522986355261514
 40
0.50320423878125
 40
0.7525050272907617
 40
1.0
 40
1.0
 40
1.0
 40
1.0
 10
-111.2180628919409
 20
33.48194265889693
 30
0.0
 10
-111.2180476303927
 20
33.48180954029827
 30
0.0
 10
-111.2180171915608
 20
33.48154403809701
 30
0.0
 10
-111.2178226223084
 20
33.48116979699427
 30
0.0
 10
-111.2175370156954
 20
33.48083131478237
 30
0.0
 10
-111.2172719919491
 20
33.48065430837823
 30
0.0
 10
-111.2171399617468
 20
33.48056612687875
 30
0.0
  0
LINE
  5
277E
330
A
100
AcDbEntity
  8
001
  6
Continuous
370
    15
100
AcDbLine
 10
-111.2171489222341
 20
33.48057069035933
 30
0.0
 11
-111.2145914371026
 21
33.47905291395958
 31
0.0
  0
LINE
  5
277F
330
A
100
AcDbEntity
  8
001
  6
Continuous
370
    15
100
AcDbLine
 10
-111.2159195310336
 20
33.49438721698458
 30
0.0
 11
-111.2156202854489
 21
33.49397070391784
 31
0.0
  0
ARC
  5
2780
330
A
100
AcDbEntity
  8
001
  6
Continuous
370
    15
100
AcDbCircle
 10
-111.2208414370701
 20
33.55734512598383
 30
0.0
 40
0.0062500000000001
100
AcDbArc
 50
321.9529574682003
 51
0.0
  0
LINE
  5
2781
330
A
100
AcDbEntity
  8
001
  6
Continuous
370
    15
100
AcDbLine
 10
-111.2159195310336
 20
33.55349319905733
 30
0.0
 11
-111.2250907353259
 21
33.54177443695008
 31
0.0
  0
LINE
  5
2782
330
A
100
AcDbEntity
  8
001
  6
Continuous
370
    15
100
AcDbLine
 10
-111.2250907353259
 20
33.50610597909183
 30
0.0
 11
-111.2159195310336
 21
33.49438721698458
 31
0.0
  0
ARC
  5
2783
330
A
100
AcDbEntity
  8
001
  6
Continuous
370
    15
100
AcDbCircle
 10
-111.2270594983454
 20
33.50456520802109
 30
0.0
 40
0.0025
100
AcDbArc
 50
38.04704253209954
 51
90.0
  0
ARC
  5
2784
330
A
100
AcDbEntity
  8
001
  6
Continuous
370
    15
100
AcDbCircle
 10
-111.2270594983454
 20
33.54331520802108
 30
0.0
 40
0.0025
100
AcDbArc
 50
270.0
 51
321.9529574679001
  0
LINE
  5
2785
330
A
100
AcDbEntity
  8
001
  6
Continuous
370
    15
100
AcDbLine
 10
-111.2383414369209
 20
33.50706520758333
 30
0.0
 11
-111.2270594988616
 21
33.50706520758333
 31
0.0
  0
LINE
  5
2786
330
A
100
AcDbEntity
  8
001
  6
Continuous
370
    15
100
AcDbLine
 10
-111.2350294140301
 20
33.54081520845884
 30
0.0
 11
-111.2383414369209
 21
33.54081520845884
 31
0.0
  0
LINE
  5
2787
330
A
100
AcDbEntity
  8
001
  6
Continuous
370
    15
100
AcDbLine
 10
-111.2270594988616
 20
33.54081520845884
 30
0.0
 11
-111.2291544158611
 21
33.54081520845884
 31
0.0
  0
SPLINE
  5
2788
330
A
100
AcDbEntity
  8
001
  6
Continuous
370
    15
100
AcDbSpline
210
0.0
220
0.0
230
1.0
 70
     8
 71
     3
 72
    13
 73
     9
 74
     0
 42
0.0000000001
 43
0.0000000001
 40
0.0
 40
0.0
 40
0.0
 40
0.0
 40
0.2391031331442268
 40
0.3679221384546982
 40
0.4995627374589639
 40
0.631209596495749
 40
0.7602394206837909
 40
1.0
 40
1.0
 40
1.0
 40
1.0
 10
-111.2343638233974
 20
33.54143705021348
 30
0.0
 10
-111.2343718169755
 20
33.54135837530071
 30
0.0
 10
-111.2343841171669
 20
33.54123731355731
 30
0.0
 10
-111.2344604197755
 20
33.54109113623551
 30
0.0
 10
-111.2345395004342
 20
33.54099014809245
 30
0.0
 10
-111.2346382309116
 20
33.54090897632277
 30
0.0
 10
-111.2347812056899
 20
33.54082933144158
 30
0.0
 10
-111.2349004561389
 20
33.54081581662731
 30
0.0
 10
-111.2349779840692
 20
33.54080703028236
 30
0.0
  0
SPLINE
  5
2789
330
A
100
AcDbEntity
  8
001
  6
Continuous
370
    15
100
AcDbSpline
210
0.0
220
0.0
230
1.0
 70
     8
 71
     3
 72
    13
 73
     9
 74
     0
 42
0.0000000001
 43
0.0000000001
 40
0.0
 40
0.0
 40
0.0
 40
0.0
 40
0.2397575218957365
 40
0.3687874007275106
 40
0.5004352417833077
 40
0.632076837380409
 40
0.7608980774895965
 40
1.0
 40
1.0
 40
1.0
 40
1.0
 10
-111.2292060879658
 20
33.54080673458744
 30
0.0
 10
-111.2292835541825
 20
33.5408155395164
 30
0.0
 10
-111.2294027102551
 20
33.54082908297831
 30
0.0
 10
-111.2295455799364
 20
33.5409087418715
 30
0.0
 10
-111.2296442440759
 20
33.54098991522648
 30
0.0
 10
-111.2297232751834
 20
33.54109089876531
 30
0.0
 10
-111.2297995526936
 20
33.54123705447367
 30
0.0
 10
-111.2298118659523
 20
33.54135810427928
 30
0.0
 10
-111.2298198679596
 20
33.54143677081671
 30
0.0
  0
LINE
  5
278A
330
A
100
AcDbEntity
  8
001
  6
Continuous
370
    15
100
AcDbLine
 10
-111.2344039377889
 20
33.54231520823883
 30
0.0
 11
-111.2344039377889
 21
33.54144016432334
 31
0.0
  0
LINE
  5
278B
330
A
100
AcDbEntity
  8
001
  6
Continuous
370
    15
100
AcDbLine
 10
-111.2297789374966
 20
33.54144027957458
 30
0.0
 11
-111.2297789374966
 21
33.54231520823883
 31
0.0
  0
SPLINE
  5
278C
330
A
100
AcDbEntity
  8
001
  6
Continuous
370
    15
100
AcDbSpline
210
0.0
220
0.0
230
1.0
 70
     8
 71
     3
 72
    13
 73
     9
 74
     0
 42
0.0000000001
 43
0.0000000001
 40
0.0
 40
0.0
 40
0.0
 40
0.0
 40
0.2397566509115246
 40
0.3687861129156593
 40
0.5004359978443968
 40
0.6320786186538764
 40
0.7609006133269247
 40
1.0
 40
1.0
 40
1.0
 40
1.0
 10
-111.2292052183434
 20
33.54080687312167
 30
0.0
 10
-111.2292827138853
 20
33.54081567119449
 30
0.0
 10
-111.2294019150819
 20
33.5408292041124
 30
0.0
 10
-111.2295448370972
 20
33.54090885908581
 30
0.0
 10
-111.2296435349549
 20
33.54099003457941
 30
0.0
 10
-111.229722592686
 20
33.54109102235641
 30
0.0
 10
-111.2297988862234
 20
33.5412371884443
 30
0.0
 10
-111.2298111942134
 20
33.54135824623003
 30
0.0
 10
-111.2298191927507
 20
33.54143691750001
 30
0.0
  0
LINE
  5
278D
330
A
100
AcDbEntity
  8
001
  6
Continuous
370
    15
100
AcDbLine
 10
-111.2286539370794
 20
33.54331520770434
 30
0.0
 11
-111.2287728297191
 21
33.54467415169558
 31
0.0
  0
LINE
  5
278E
330
A
100
AcDbEntity
  8
001
  6
Continuous
370
    15
100
AcDbLine
 10
-111.2354100455664
 20
33.54467415169558
 30
0.0
 11
-111.2355289382061
 21
33.54331520770434
 31
0.0
  0
ARC
  5
278F
330
A
100
AcDbEntity
  8
001
  6
Continuous
370
    15
100
AcDbCircle
 10
-111.2341648014436
 20
33.54456520802109
 30
0.0
 40
0.0012500000000082
100
AcDbArc
 50
90.0
 51
174.9999999997999
  0
ARC
  5
2790
330
A
100
AcDbEntity
  8
001
  6
Continuous
370
    15
100
AcDbCircle
 10
-111.2300180726964
 20
33.54456520802109
 30
0.0
 40
0.0012500000000082
100
AcDbArc
 50
5.000000000200029
 51
90.0
  0
LINE
  5
2791
330
A
100
AcDbEntity
  8
001
  6
Continuous
370
    15
100
AcDbLine
 10
-111.2302164367534
 20
33.54231520823883
 30
0.0
 11
-111.2302164367534
 21
33.54331520770434
 31
0.0
  0
LINE
  5
2792
330
A
100
AcDbEntity
  8
001
  6
Continuous
370
    15
100
AcDbLine
 10
-111.2339664373681
 20
33.54331520770434
 30
0.0
 11
-111.2339664373681
 21
33.54231520823883
 31
0.0
  0
LINE
  5
2793
330
A
100
AcDbEntity
  8
001
  6
Continuous
370
    15
100
AcDbLine
 10
-111.5302164230629
 20
33.70669020957083
 30
0.0
 11
-111.5302164230629
 21
33.62706521211883
 31
0.0
  0
LINE
  5
2794
330
A
100
AcDbEntity
  8
001
  6
Continuous
370
    15
100
AcDbLine
 10
-111.4989664342389
 20
33.69294020033208
 30
0.0
 11
-111.4989664342389
 21
33.70669020957083
 31
0.0
  0
LINE
  5
2795
330
A
100
AcDbEntity
  8
001
  6
Continuous
370
    15
100
AcDbLine
 10
-111.4989664342389
 20
33.62706521211883
 30
0.0
 11
-111.4989664342389
 21
33.64794021158234
 31
0.0
  0
LINE
  5
2796
330
A
100
AcDbEntity
  8
001
  6
Continuous
370
    15
100
AcDbLine
 10
-111.2383414369209
 20
33.53956520825384
 30
0.0
 11
-111.4114664431794
 21
33.53956520825384
 31
0.0
  0
LINE
  5
2797
330
A
100
AcDbEntity
  8
001
  6
Continuous
370
    15
100
AcDbLine
 10
-111.4114664431794
 20
33.50831520778808
 30
0.0
 11
-111.2383414369209
 21
33.50831520778808
 31
0.0
  0
ARC
  5
2798
330
A
100
AcDbEntity
  8
001
  6
Continuous
370
    15
100
AcDbCircle
 10
-111.4114664370701
 20
33.62706520802108
 30
0.0
 40
0.11875
100
AcDbArc
 50
180.0
 51
270.0
  0
ARC
  5
2799
330
A
100
AcDbEntity
  8
001
  6
Continuous
370
    15
100
AcDbCircle
 10
-111.4114664370701
 20
33.62706520802108
 30
0.0
 40
0.0874999999999999
100
AcDbArc
 50
180.0
 51
270.0
  0
LINE
  5
279A
330
A
100
AcDbEntity
  8
001
  6
Continuous
370
    15
100
AcDbLine
 10
-111.5145914379641
 20
33.78519021591859
 30
0.0
 11
-111.5185414377734
 21
33.78519021591859
 31
0.0
  0
LINE
  5
279B
330
A
100
AcDbEntity
  8
001
  6
Continuous
370
    15
100
AcDbLine
 10
-111.5106414381549
 20
33.78519021591859
 30
0.0
 11
-111.5145914379641
 21
33.78519021591859
 31
0.0
  0
LINE
  5
279C
330
A
100
AcDbEntity
  8
001
  6
Continuous
370
    15
100
AcDbLine
 10
-111.5145914379641
 20
33.78606521210383
 30
0.0
 11
-111.5176664415882
 21
33.78606521210383
 31
0.0
  0
LINE
  5
279D
330
A
100
AcDbEntity
  8
001
  6
Continuous
370
    15
100
AcDbLine
 10
-111.5115164343401
 20
33.78606521210383
 30
0.0
 11
-111.5145914379641
 21
33.78606521210383
 31
0.0
  0
SPLINE
  5
279E
330
A
100
AcDbEntity
  8
001
  6
Continuous
370
    15
100
AcDbSpline
210
0.0
220
0.0
230
1.0
 70
    24
 71
     3
 72
    17
 73
    13
 74
     0
 42
0.0000000001
 43
0.0000000001
 40
0.0
 40
0.0
 40
0.0
 40
0.0
 40
0.103825742874981
 40
0.2123862443267332
 40
0.3243516116544228
 40
0.4380991981522492
 40
0.5518466384459888
 40
0.6638120761955286
 40
0.7723729362839764
 40
0.876198485764603
 40
0.9800238050340725
 40
1.0
 40
1.0
 40
1.0
 40
1.0
 10
-111.5145914379641
 20
33.75544021523316
 30
0.0
 10
-111.5152184944714
 20
33.75544021523316
 30
0.0
 10
-111.5165012031029
 20
33.75544021523316
 30
0.0
 10
-111.5184072156628
 20
33.75544021523316
 30
0.0
 10
-111.5202569120067
 20
33.75544021523316
 30
0.0
 10
-111.521957444943
 20
33.75544021523316
 30
0.0
 10
-111.5234252304342
 20
33.75544021523316
 30
0.0
 10
-111.5245946656508
 20
33.75544021523316
 30
0.0
 10
-111.5254435423139
 20
33.75544021523316
 30
0.0
 10
-111.5259430017608
 20
33.75544021523316
 30
0.0
 10
-111.5261599019682
 20
33.75544021523316
 30
0.0
 10
-111.5261107409585
 20
33.75544021523316
 30
0.0
 10
-111.5261028085038
 20
33.75544021523316
 30
0.0
  0
SPLINE
  5
279F
330
A
100
AcDbEntity
  8
001
  6
Continuous
370
    15
100
AcDbSpline
210
0.0
220
0.0
230
1.0
 70
    24
 71
     3
 72
    17
 73
    13
 74
     0
 42
0.0000000001
 43
0.0000000001
 40
0.0
 40
0.0
 40
0.0
 40
0.0
 40
0.019976240943093
 40
0.1238016273362771
 40
0.2276268474804675
 40
0.3361880974370274
 40
0.4481528878602472
 40
0.5619010080553672
 40
0.6756485410136782
 40
0.7876138556407203
 40
0.896174305994451
 40
1.0
 40
1.0
 40
1.0
 40
1.0
 10
-111.5030800674244
 20
33.75544021523316
 30
0.0
 10
-111.5030721280138
 20
33.75544021523316
 30
0.0
 10
-111.5030229239639
 20
33.75544021523316
 30
0.0
 10
-111.503239902041
 20
33.75544021523316
 30
0.0
 10
-111.5037392975576
 20
33.75544021523316
 30
0.0
 10
-111.5045882216429
 20
33.75544021523316
 30
0.0
 10
-111.5057576214792
 20
33.75544021523316
 30
0.0
 10
-111.5072254328413
 20
33.75544021523316
 30
0.0
 10
-111.5089259624644
 20
33.75544021523316
 30
0.0
 10
-111.5107756606388
 20
33.75544021523316
 30
0.0
 10
-111.5126816727378
 20
33.75544021523316
 30
0.0
 10
-111.5139643814281
 20
33.75544021523316
 30
0.0
 10
-111.5145914379641
 20
33.75544021523316
 30
0.0
  0
LINE
  5
27A0
330
A
100
AcDbEntity
  8
001
  6
Continuous
370
    15
100
AcDbLine
 10
-111.5145914379641
 20
33.77981519943784
 30
0.0
 11
-111.5333414200826
 21
33.77981519943784
 31
0.0
  0
LINE
  5
27A1
330
A
100
AcDbEntity
  8
001
  6
Continuous
370
    15
100
AcDbLine
 10
-111.4958414372191
 20
33.77981519943784
 30
0.0
 11
-111.5145914379641
 21
33.77981519943784
 31
0.0
  0
LINE
  5
27A2
330
A
100
AcDbEntity
  8
001
  6
Continuous
370
    15
100
AcDbLine
 10
-111.5467450145766
 20
33.72003645322033
 30
0.0
 11
-111.5360909823461
 21
33.71981518960309
 31
0.0
  0
LINE
  5
27A3
330
A
100
AcDbEntity
  8
001
  6
Continuous
370
    15
100
AcDbLine
 10
-111.5360914293811
 20
33.71981520822959
 30
0.0
 11
-111.5360914293811
 21
33.73044020182209
 31
0.0
  0
SPLINE
  5
27A4
330
A
100
AcDbEntity
  8
001
  6
Continuous
370
    15
100
AcDbSpline
210
0.0
220
0.0
230
1.0
 70
     8
 71
     3
 72
     9
 73
     5
 74
     0
 42
0.0000000001
 43
0.0000000001
 40
0.0
 40
0.0
 40
0.0
 40
0.0
 40
0.5013677835986697
 40
1.0
 40
1.0
 40
1.0
 40
1.0
 10
-111.5360913921281
 20
33.71981507784445
 30
0.0
 10
-111.5360559558121
 20
33.71968304030644
 30
0.0
 10
-111.5359852765281
 20
33.71941968565477
 30
0.0
 10
-111.5360560848284
 20
33.71915937902854
 30
0.0
 10
-111.5360913921281
 20
33.71902958175857
 30
0.0
  0
SPLINE
  5
27A5
330
A
100
AcDbEntity
  8
001
  6
Continuous
370
    15
100
AcDbSpline
210
0.0
220
0.0
230
1.0
 70
    24
 71
     3
 72
    13
 73
     9
 74
     0
 42
0.0000000001
 43
0.0000000001
 40
0.0
 40
0.0
 40
0.0
 40
0.0
 40
0.2394566006606238
 40
0.3683608193114506
 40
0.4999997872229637
 40
0.6316391604708703
 40
0.7605432305696091
 40
1.0
 40
1.0
 40
1.0
 40
1.0
 10
-111.5335914243146
 20
33.72912297642548
 30
0.0
 10
-111.5335914243146
 20
33.72902369649473
 30
0.0
 10
-111.5335914243146
 20
33.72887097221596
 30
0.0
 10
-111.5335914243146
 20
33.72794410220032
 30
0.0
 10
-111.5335914243146
 20
33.72698482506446
 30
0.0
 10
-111.5335914243146
 20
33.72579404170408
 30
0.0
 10
-111.5335914243146
 20
33.7240635702373
 30
0.0
 10
-111.5335914243146
 20
33.72262521827167
 30
0.0
 10
-111.5335914243146
 20
33.72169020271618
 30
0.0
  0
SPLINE
  5
27A6
330
A
100
AcDbEntity
  8
001
  6
Continuous
370
    15
100
AcDbSpline
210
0.0
220
0.0
230
1.0
 70
    24
 71
     3
 72
    13
 73
     9
 74
     0
 42
0.0000000001
 43
0.0000000001
 40
0.0
 40
0.0
 40
0.0
 40
0.0
 40
0.2394570610963168
 40
0.3683606294724099
 40
0.5000006952349122
 40
0.6316389137273059
 40
0.7605430701714059
 40
1.0
 40
1.0
 40
1.0
 40
1.0
 10
-111.5335914243146
 20
33.71425742900688
 30
0.0
 10
-111.5335914243146
 20
33.71435672169962
 30
0.0
 10
-111.5335914243146
 20
33.714509465238
 30
0.0
 10
-111.5335914243146
 20
33.71543629689972
 30
0.0
 10
-111.5335914243146
 20
33.71639560116546
 30
0.0
 10
-111.5335914243146
 20
33.71758636379659
 30
0.0
 10
-111.5335914243146
 20
33.71931683733994
 30
0.0
 10
-111.5335914243146
 20
33.72075518800569
 30
0.0
 10
-111.5335914243146
 20
33.72169020271618
 30
0.0
  0
LINE
  5
27A7
330
A
100
AcDbEntity
  8
001
  6
Continuous
370
    15
100
AcDbLine
 10
-111.5360914293811
 20
33.71902945137334
 30
0.0
 11
-111.5360914293811
 21
33.68648131063908
 31
0.0
  0
SPLINE
  5
27A8
330
A
100
AcDbEntity
  8
001
  6
Continuous
370
    15
100
AcDbSpline
210
0.0
220
0.0
230
1.0
 70
     8
 71
     3
 72
    11
 73
     7
 74
     0
 42
0.0000000001
 43
0.0000000001
 40
0.0
 40
0.0
 40
0.0
 40
0.0
 40
0.2410348279208599
 40
0.4999997267496646
 40
0.7589806523393193
 40
1.0
 40
1.0
 40
1.0
 40
1.0
 10
-111.5478858847305
 20
33.72036774328668
 30
0.0
 10
-111.5478719643226
 20
33.72033448424142
 30
0.0
 10
-111.5478430879972
 20
33.7202654920809
 30
0.0
 10
-111.5475841531634
 20
33.72016328846626
 30
0.0
 10
-111.5472010604817
 20
33.72007904410357
 30
0.0
 10
-111.5468933451787
 20
33.72005030606127
 30
0.0
 10
-111.5467450145766
 20
33.72003645322044
 30
0.0
  0
SPLINE
  5
27A9
330
A
100
AcDbEntity
  8
001
  6
Continuous
370
    15
100
AcDbSpline
210
0.0
220
0.0
230
1.0
 70
     8
 71
     3
 72
    11
 73
     7
 74
     0
 42
0.0000000001
 43
0.0000000001
 40
0.0
 40
0.0
 40
0.0
 40
0.0
 40
0.2474758492049602
 40
0.4984036693253615
 40
0.7580787659904905
 40
1.0
 40
1.0
 40
1.0
 40
1.0
 10
-111.5497689817234
 20
33.68553033715803
 30
0.0
 10
-111.5497531798572
 20
33.68551834379811
 30
0.0
 10
-111.5497213557091
 20
33.68549418978626
 30
0.0
 10
-111.549461638071
 20
33.68544603665696
 30
0.0
 10
-111.5490841880115
 20
33.68540142117298
 30
0.0
 10
-111.5487774619627
 20
33.68538013611706
 30
0.0
 10
-111.5486295271798
 20
33.68536987027843
 30
0.0
  0
SPLINE
  5
27AA
330
A
100
AcDbEntity
  8
001
  6
Continuous
370
    15
100
AcDbSpline
210
0.0
220
0.0
230
1.0
 70
     8
 71
     3
 72
    10
 73
     6
 74
     0
 42
0.0000000001
 43
0.0000000001
 40
0.0
 40
0.0
 40
0.0
 40
0.0
 40
0.3332040885437892
 40
0.6666493944008222
 40
1.0
 40
1.0
 40
1.0
 40
1.0
 10
-111.5478858847305
 20
33.72036774328668
 30
0.0
 10
-111.5480920065489
 20
33.71655460139316
 30
0.0
 10
-111.548504399404
 20
33.70892555714829
 30
0.0
 10
-111.5491337144647
 20
33.69728311673977
 30
0.0
 10
-111.5495572460209
 20
33.68944755940921
 30
0.0
 10
-111.5497689817234
 20
33.68553033715803
 30
0.0
  0
LINE
  5
27AB
330
A
100
AcDbEntity
  8
001
  6
Continuous
370
    15
100
AcDbLine
 10
-111.5361336369201
 20
33.68419020122608
 30
0.0
 11
-111.5360914293811
 21
33.68419020122608
 31
0.0
  0
SPLINE
  5
27AC
330
A
100
AcDbEntity
  8
001
  6
Continuous
370
    15
100
AcDbSpline
210
0.0
220
0.0
230
1.0
 70
    24
 71
     3
 72
    12
 73
     8
 74
     0
 42
0.0000000001
 43
0.0000000001
 40
0.0
 40
0.0
 40
0.0
 40
0.0
 40
0.1796470168885144
 40
0.406541465339596
 40
0.6344961630047184
 40
0.8602618228782082
 40
1.0
 40
1.0
 40
1.0
 40
1.0
 10
-111.536091429381
 20
33.68419020122606
 30
0.0
 10
-111.536091429381
 20
33.68420759429607
 30
0.0
 10
-111.536091429381
 20
33.68424695483926
 30
0.0
 10
-111.536091429381
 20
33.68459685459736
 30
0.0
 10
-111.536091429381
 20
33.68519109126879
 30
0.0
 10
-111.536091429381
 20
33.68586139628573
 30
0.0
 10
-111.536091429381
 20
33.68630985676286
 30
0.0
 10
-111.536091429381
 20
33.68648131063897
 30
0.0
  0
SPLINE
  5
27AD
330
A
100
AcDbEntity
  8
001
  6
Continuous
370
    15
100
AcDbSpline
210
0.0
220
0.0
230
1.0
 70
     8
 71
     3
 72
    11
 73
     7
 74
     0
 42
0.0000000001
 43
0.0000000001
 40
0.0
 40
0.0
 40
0.0
 40
0.0
 40
0.2560960482760429
 40
0.4999852833184655
 40
0.7481225526983366
 40
1.0
 40
1.0
 40
1.0
 40
1.0
 10
-111.5485220525547
 20
33.68419020122606
 30
0.0
 10
-111.5485292703613
 20
33.68420458996044
 30
0.0
 10
-111.5485433619378
 20
33.68423268159045
 30
0.0
 10
-111.5485694920503
 20
33.68444909762251
 30
0.0
 10
-111.5485960567545
 20
33.68476144062475
 30
0.0
 10
-111.5486116508022
 20
33.68503076346793
 30
0.0
 10
-111.548619506149
 20
33.68516643217523
 30
0.0
  0
SPLINE
  5
27AE
330
A
100
AcDbEntity
  8
001
  6
Continuous
370
    15
100
AcDbSpline
210
0.0
220
0.0
230
1.0
 70
    24
 71
     3
 72
    11
 73
     7
 74
     0
 42
0.0000000001
 43
0.0000000001
 40
0.0
 40
0.0
 40
0.0
 40
0.0
 40
0.2496391459879288
 40
0.5003150642600005
 40
0.7507532653791556
 40
1.0
 40
1.0
 40
1.0
 40
1.0
 10
-111.5485220525547
 20
33.68419020122606
 30
0.0
 10
-111.5474907014336
 20
33.68419020122606
 30
0.0
 10
-111.5454237159036
 20
33.68419020122606
 30
0.0
 10
-111.5423248538333
 20
33.68419020122606
 30
0.0
 10
-111.5392254103977
 20
33.68419020122606
 30
0.0
 10
-111.5371625885241
 20
33.68419020122606
 30
0.0
 10
-111.5361336369201
 20
33.68419020122606
 30
0.0
  0
SPLINE
  5
27B0
330
A
100
AcDbEntity
  8
001
  6
Continuous
370
    15
100
AcDbSpline
210
0.0
220
0.0
230
1.0
 70
     8
 71
     3
 72
    11
 73
     7
 74
     0
 42
0.0000000001
 43
0.0000000001
 40
0.0
 40
0.0
 40
0.0
 40
0.0
 40
0.1702858977165537
 40
0.446861222466388
 40
0.7234306793057496
 40
1.0
 40
1.0
 40
1.0
 40
1.0
 10
-111.548705895631
 20
33.6842267835768
 30
0.0
 10
-111.548806143002
 20
33.68424013966577
 30
0.0
 10
-111.5490692103692
 20
33.6842751884768
 30
0.0
 10
-111.5494257438988
 20
33.6845383077212
 30
0.0
 10
-111.5497158931681
 20
33.68494815806348
 30
0.0
 10
-111.5497533220334
 20
33.68527618855424
 30
0.0
 10
-111.5497720364615
 20
33.68544020375926
 30
0.0
  0
LINE
  5
27B1
330
A
100
AcDbEntity
  8
001
  6
Continuous
370
    15
100
AcDbLine
 10
-111.5497720364614
 20
33.68544020375934
 30
0.0
 11
-111.5497702110691
 21
33.68550779915183
 31
0.0
  0
SPLINE
  5
27B2
330
A
100
AcDbEntity
  8
001
  6
Continuous
370
    15
100
AcDbSpline
210
0.0
220
0.0
230
1.0
 70
     8
 71
     3
 72
    11
 73
     7
 74
     0
 42
0.0000000001
 43
0.0000000001
 40
0.0
 40
0.0
 40
0.0
 40
0.0
 40
0.2509835380971982
 40
0.4862078150143147
 40
0.7289588465722106
 40
1.0
 40
1.0
 40
1.0
 40
1.0
 10
-111.5497689817234
 20
33.68553033715803
 30
0.0
 10
-111.5497691329591
 20
33.68552754429051
 30
0.0
 10
-111.5497694259345
 20
33.68552213391969
 30
0.0
 10
-111.5497698276435
 20
33.68551536612973
 30
0.0
 10
-111.5497700967081
 20
33.68551034037475
 30
0.0
 10
-111.5497701715748
 20
33.68550867675973
 30
0.0
 10
-111.5497702110692
 20
33.68550779915173
 30
0.0
  0
SPLINE
  5
27B3
330
A
100
AcDbEntity
  8
001
  6
Continuous
370
    15
100
AcDbSpline
210
0.0
220
0.0
230
1.0
 70
     8
 71
     3
 72
     9
 73
     5
 74
     0
 42
0.0000000001
 43
0.0000000001
 40
0.0
 40
0.0
 40
0.0
 40
0.0
 40
0.377263510758488
 40
1.0
 40
1.0
 40
1.0
 40
1.0
 10
-111.5188549768313
 20
33.77319021767695
 30
0.0
 10
-111.5188968293331
 20
33.77318908585416
 30
0.0
 10
-111.5190077663854
 20
33.77318608576866
 30
0.0
 10
-111.5191237004196
 20
33.77318862054979
 30
0.0
 10
-111.519195896773
 20
33.7731901990505
 30
0.0
  0
SPLINE
  5
27B4
330
A
100
AcDbEntity
  8
001
  6
Continuous
370
    15
100
AcDbSpline
210
0.0
220
0.0
230
1.0
 70
     8
 71
     3
 72
     9
 73
     5
 74
     0
 42
0.0000000001
 43
0.0000000001
 40
0.0
 40
0.0
 40
0.0
 40
0.0
 40
0.3773034626988583
 40
1.0
 40
1.0
 40
1.0
 40
1.0
 10
-111.5099869791552
 20
33.7731901990505
 30
0.0
 10
-111.5100302062231
 20
33.77318907385353
 30
0.0
 10
-111.5101447746599
 20
33.7731860916467
 30
0.0
 10
-111.5102576151117
 20
33.77318863434655
 30
0.0
 10
-111.5103278804704
 20
33.77319021767695
 30
0.0
  0
SPLINE
  5
27B5
330
A
100
AcDbEntity
  8
001
  6
Continuous
370
    15
100
AcDbSpline
210
0.0
220
0.0
230
1.0
 70
    24
 71
     3
 72
     9
 73
     5
 74
     0
 42
0.0000000001
 43
0.0000000001
 40
0.0
 40
0.0
 40
0.0
 40
0.0
 40
0.5000012183492331
 40
1.0
 40
1.0
 40
1.0
 40
1.0
 10
-111.5190681006893
 20
33.77256520709712
 30
0.0
 10
-111.5203904516122
 20
33.77256520709712
 30
0.0
 10
-111.5230351470136
 20
33.77256520709712
 30
0.0
 10
-111.5253892321631
 20
33.77256520709712
 30
0.0
 10
-111.5265662718698
 20
33.77256520709712
 30
0.0
  0
SPLINE
  5
27B6
330
A
100
AcDbEntity
  8
001
  6
Continuous
370
    15
100
AcDbSpline
210
0.0
220
0.0
230
1.0
 70
    24
 71
     3
 72
     9
 73
     5
 74
     0
 42
0.0000000001
 43
0.0000000001
 40
0.0
 40
0.0
 40
0.0
 40
0.0
 40
0.4999987816507669
 40
1.0
 40
1.0
 40
1.0
 40
1.0
 10
-111.5026166040584
 20
33.77256520709712
 30
0.0
 10
-111.5037936437651
 20
33.77256520709712
 30
0.0
 10
-111.5061477289146
 20
33.77256520709712
 30
0.0
 10
-111.508792424316
 20
33.77256520709712
 30
0.0
 10
-111.5101147752389
 20
33.77256520709712
 30
0.0
  0
LINE
  5
27B7
330
A
100
AcDbEntity
  8
001
  6
Continuous
370
    15
100
AcDbLine
 10
-111.5269087750599
 20
33.77319019905058
 30
0.0
 11
-111.5191958967729
 21
33.77319019905058
 31
0.0
  0
LINE
  5
27B8
330
A
100
AcDbEntity
  8
001
  6
Continuous
370
    15
100
AcDbLine
 10
-111.5099869791551
 20
33.77319019905058
 30
0.0
 11
-111.5022740822419
 21
33.77319019905058
 31
0.0
  0
SPLINE
  5
27B9
330
A
100
AcDbEntity
  8
001
  6
Continuous
370
    15
100
AcDbSpline
210
0.0
220
0.0
230
1.0
 70
    24
 71
     3
 72
     9
 73
     5
 74
     0
 42
0.0000000001
 43
0.0000000001
 40
0.0
 40
0.0
 40
0.0
 40
0.0
 40
0.4999977995625371
 40
1.0
 40
1.0
 40
1.0
 40
1.0
 10
-111.5101147752389
 20
33.77256520709712
 30
0.0
 10
-111.5108437184536
 20
33.77256520709712
 30
0.0
 10
-111.5123016112989
 20
33.77256520709712
 30
0.0
 10
-111.5138281601696
 20
33.77256520709712
 30
0.0
 10
-111.5145914379641
 20
33.77256520709712
 30
0.0
  0
SPLINE
  5
27BA
330
A
100
AcDbEntity
  8
001
  6
Continuous
370
    15
100
AcDbSpline
210
0.0
220
0.0
230
1.0
 70
    24
 71
     3
 72
     9
 73
     5
 74
     0
 42
0.0000000001
 43
0.0000000001
 40
0.0
 40
0.0
 40
0.0
 40
0.0
 40
0.5000022004374629
 40
1.0
 40
1.0
 40
1.0
 40
1.0
 10
-111.5145914379641
 20
33.77256520709712
 30
0.0
 10
-111.5153547157585
 20
33.77256520709712
 30
0.0
 10
-111.5168812646293
 20
33.77256520709712
 30
0.0
 10
-111.5183391574746
 20
33.77256520709712
 30
0.0
 10
-111.5190681006893
 20
33.77256520709712
 30
0.0
  0
LINE
  5
27BB
330
A
100
AcDbEntity
  8
001
  6
Continuous
370
    15
100
AcDbLine
 10
-111.5103278804704
 20
33.77319019905058
 30
0.0
 11
-111.5188549768314
 21
33.77319019905058
 31
0.0
  0
SPLINE
  5
27BC
330
A
100
AcDbEntity
  8
001
  6
Continuous
370
    15
100
AcDbSpline
210
0.0
220
0.0
230
1.0
 70
    24
 71
     3
 72
     9
 73
     5
 74
     0
 42
0.0000000001
 43
0.0000000001
 40
0.0
 40
0.0
 40
0.0
 40
0.0
 40
0.5000008124907576
 40
1.0
 40
1.0
 40
1.0
 40
1.0
 10
-111.5100455220922
 20
33.77881520113666
 30
0.0
 10
-111.508888593661
 20
33.77881520113666
 30
0.0
 10
-111.5065747405586
 20
33.77881520113666
 30
0.0
 10
-111.5044965758679
 20
33.77881520113666
 30
0.0
 10
-111.503457495211
 20
33.77881520113666
 30
0.0
  0
SPLINE
  5
27BD
330
A
100
AcDbEntity
  8
001
  6
Continuous
370
    15
100
AcDbSpline
210
0.0
220
0.0
230
1.0
 70
    24
 71
     3
 72
     9
 73
     5
 74
     0
 42
0.0000000001
 43
0.0000000001
 40
0.0
 40
0.0
 40
0.0
 40
0.0
 40
0.5000003423603435
 40
1.0
 40
1.0
 40
1.0
 40
1.0
 10
-111.5257253993436
 20
33.77881520113666
 30
0.0
 10
-111.5246863122845
 20
33.77881520113666
 30
0.0
 10
-111.5226081395892
 20
33.77881520113666
 30
0.0
 10
-111.5202942818923
 20
33.77881520113666
 30
0.0
 10
-111.519137353836
 20
33.77881520113666
 30
0.0
  0
SPLINE
  5
27BE
330
A
100
AcDbEntity
  8
001
  6
Continuous
370
    15
100
AcDbSpline
210
0.0
220
0.0
230
1.0
 70
    24
 71
     3
 72
     9
 73
     5
 74
     0
 42
0.0000000001
 43
0.0000000001
 40
0.0
 40
0.0
 40
0.0
 40
0.0
 40
0.5000005715885627
 40
1.0
 40
1.0
 40
1.0
 40
1.0
 10
-111.519137353836
 20
33.77881520113666
 30
0.0
 10
-111.5183949427293
 20
33.77881520113666
 30
0.0
 10
-111.5169101222133
 20
33.77881520113666
 30
0.0
 10
-111.5153643321248
 20
33.77881520113666
 30
0.0
 10
-111.5145914379641
 20
33.77881520113666
 30
0.0
  0
SPLINE
  5
27BF
330
A
100
AcDbEntity
  8
001
  6
Continuous
370
    15
100
AcDbSpline
210
0.0
220
0.0
230
1.0
 70
    24
 71
     3
 72
     9
 73
     5
 74
     0
 42
0.0000000001
 43
0.0000000001
 40
0.0
 40
0.0
 40
0.0
 40
0.0
 40
0.4999994284114374
 40
1.0
 40
1.0
 40
1.0
 40
1.0
 10
-111.5145914379641
 20
33.77881520113666
 30
0.0
 10
-111.5138185438034
 20
33.77881520113666
 30
0.0
 10
-111.5122727537149
 20
33.77881520113666
 30
0.0
 10
-111.5107879331989
 20
33.77881520113666
 30
0.0
 10
-111.5100455220922
 20
33.77881520113666
 30
0.0
  0
SPLINE
  5
27C0
330
A
100
AcDbEntity
  8
001
  6
Continuous
370
    15
100
AcDbSpline
210
0.0
220
0.0
230
1.0
 70
    24
 71
     3
 72
    11
 73
     7
 74
     0
 42
0.0000000001
 43
0.0000000001
 40
0.0
 40
0.0
 40
0.0
 40
0.0
 40
0.2483346532960611
 40
0.5000008970100653
 40
0.7516655845546051
 40
1.0
 40
1.0
 40
1.0
 40
1.0
 10
-111.503457495211
 20
33.77881520113666
 30
0.0
 10
-111.503085634548
 20
33.77881520113666
 30
0.0
 10
-111.50233692444
 20
33.77881520113666
 30
0.0
 10
-111.5008102473163
 20
33.77881520113666
 30
0.0
 10
-111.4990503825965
 20
33.77881520113666
 30
0.0
 10
-111.4976994373297
 20
33.77881520113666
 30
0.0
 10
-111.4970284637197
 20
33.77881520113666
 30
0.0
  0
SPLINE
  5
27C1
330
A
100
AcDbEntity
  8
001
  6
Continuous
370
    15
100
AcDbSpline
210
0.0
220
0.0
230
1.0
 70
     8
 71
     3
 72
     9
 73
     5
 74
     0
 42
0.0000000001
 43
0.0000000001
 40
0.0
 40
0.0
 40
0.0
 40
0.0
 40
0.3772669362637983
 40
1.0
 40
1.0
 40
1.0
 40
1.0
 10
-111.5020501550421
 20
33.77319021767695
 30
0.0
 10
-111.5020707878059
 20
33.77318908585034
 30
0.0
 10
-111.5021254778988
 20
33.77318608578195
 30
0.0
 10
-111.5022170544781
 20
33.77318862056024
 30
0.0
 10
-111.5022740822419
 20
33.7731901990505
 30
0.0
  0
SPLINE
  5
27C2
330
A
100
AcDbEntity
  8
001
  6
Continuous
370
    15
100
AcDbSpline
210
0.0
220
0.0
230
1.0
 70
     8
 71
     3
 72
     9
 73
     5
 74
     0
 42
0.0000000001
 43
0.0000000001
 40
0.0
 40
0.0
 40
0.0
 40
0.0
 40
0.3772885338117271
 40
1.0
 40
1.0
 40
1.0
 40
1.0
 10
-111.5269087750598
 20
33.7731901990505
 30
0.0
 10
-111.5269440252926
 20
33.77318907387022
 30
0.0
 10
-111.5270374557302
 20
33.77318609158961
 30
0.0
 10
-111.5270961516422
 20
33.77318863430125
 30
0.0
 10
-111.5271327022597
 20
33.77319021767695
 30
0.0
  0
SPLINE
  5
27C3
330
A
100
AcDbEntity
  8
001
  6
Continuous
370
    15
100
AcDbSpline
210
0.0
220
0.0
230
1.0
 70
    24
 71
     3
 72
    11
 73
     7
 74
     0
 42
0.0000000001
 43
0.0000000001
 40
0.0
 40
0.0
 40
0.0
 40
0.0
 40
0.2480971577026306
 40
0.4999987994648309
 40
0.751899986984156
 40
1.0
 40
1.0
 40
1.0
 40
1.0
 10
-111.5265662718698
 20
33.77256520709712
 30
0.0
 10
-111.5269203634585
 20
33.77256520709712
 30
0.0
 10
-111.5276339765079
 20
33.77256520709712
 30
0.0
 10
-111.5291339131336
 20
33.77256520709712
 30
0.0
 10
-111.5308805734997
 20
33.77256520709712
 30
0.0
 10
-111.5322284426291
 20
33.77256520709712
 30
0.0
 10
-111.5328972537204
 20
33.77256520709712
 30
0.0
  0
SPLINE
  5
27C4
330
A
100
AcDbEntity
  8
001
  6
Continuous
370
    15
100
AcDbSpline
210
0.0
220
0.0
230
1.0
 70
    24
 71
     3
 72
    11
 73
     7
 74
     0
 42
0.0000000001
 43
0.0000000001
 40
0.0
 40
0.0
 40
0.0
 40
0.0
 40
0.2480969667402707
 40
0.5000002149855244
 40
0.751902353272064
 40
1.0
 40
1.0
 40
1.0
 40
1.0
 10
-111.4962856408342
 20
33.77256520709712
 30
0.0
 10
-111.4969544374566
 20
33.77256520709712
 30
0.0
 10
-111.4983022913193
 20
33.77256520709712
 30
0.0
 10
-111.5000489628432
 20
33.77256520709712
 30
0.0
 10
-111.501548898642
 20
33.77256520709712
 30
0.0
 10
-111.5022625122116
 20
33.77256520709712
 30
0.0
 10
-111.5026166040584
 20
33.77256520709712
 30
0.0
  0
LINE
  5
27C5
330
A
100
AcDbEntity
  8
001
  6
Continuous
370
    15
100
AcDbLine
 10
-111.5271327022596
 20
33.77319019905058
 30
0.0
 11
-111.5331623081251
 21
33.77319019905058
 31
0.0
  0
LINE
  5
27C6
330
A
100
AcDbEntity
  8
001
  6
Continuous
370
    15
100
AcDbLine
 10
-111.4960206050559
 20
33.77319019905058
 30
0.0
 11
-111.5020501550421
 21
33.77319019905058
 31
0.0
  0
SPLINE
  5
27C7
330
A
100
AcDbEntity
  8
001
  6
Continuous
370
    15
100
AcDbSpline
210
0.0
220
0.0
230
1.0
 70
    24
 71
     3
 72
    11
 73
     7
 74
     0
 42
0.0000000001
 43
0.0000000001
 40
0.0
 40
0.0
 40
0.0
 40
0.0
 40
0.2483355686257692
 40
0.4999998414003646
 40
0.7516653601589882
 40
1.0
 40
1.0
 40
1.0
 40
1.0
 10
-111.532154393582
 20
33.77881520113666
 30
0.0
 10
-111.5314834193513
 20
33.77881520113666
 30
0.0
 10
-111.5301324771131
 20
33.77881520113666
 30
0.0
 10
-111.5283726291441
 20
33.77881520113666
 30
0.0
 10
-111.5268459725445
 20
33.77881520113666
 30
0.0
 10
-111.5260972611665
 20
33.77881520113666
 30
0.0
 10
-111.5257253993436
 20
33.77881520113666
 30
0.0
  0
LINE
  5
27C8
330
A
100
AcDbEntity
  8
001
  6
Continuous
370
    15
100
AcDbLine
 10
-111.5145914379641
 20
33.76856521389209
 30
0.0
 11
-111.5220914345369
 21
33.76856521389209
 31
0.0
  0
LINE
  5
27C9
330
A
100
AcDbEntity
  8
001
  6
Continuous
370
    15
100
AcDbLine
 10
-111.5070914413914
 20
33.76856521389209
 30
0.0
 11
-111.5145914379641
 21
33.76856521389209
 31
0.0
  0
SPLINE
  5
27CA
330
A
100
AcDbEntity
  8
001
  6
Continuous
370
    15
100
AcDbSpline
210
0.0
220
0.0
230
1.0
 70
     8
 71
     3
 72
     9
 73
     5
 74
     0
 42
0.0000000001
 43
0.0000000001
 40
0.0
 40
0.0
 40
0.0
 40
0.0
 40
0.3772538613062097
 40
1.0
 40
1.0
 40
1.0
 40
1.0
 10
-111.4957623865589
 20
33.7731901990505
 30
0.0
 10
-111.4957882660237
 20
33.77318907390897
 30
0.0
 10
-111.4958568656257
 20
33.77318609145699
 30
0.0
 10
-111.4959577683032
 20
33.77318863419603
 30
0.0
 10
-111.4960206050559
 20
33.77319021767695
 30
0.0
  0
SPLINE
  5
27CB
330
A
100
AcDbEntity
  8
001
  6
Continuous
370
    15
100
AcDbSpline
210
0.0
220
0.0
230
1.0
 70
     8
 71
     3
 72
     9
 73
     5
 74
     0
 42
0.0000000001
 43
0.0000000001
 40
0.0
 40
0.0
 40
0.0
 40
0.0
 40
0.3773098877079613
 40
1.0
 40
1.0
 40
1.0
 40
1.0
 10
-111.5331623081251
 20
33.77319021767695
 30
0.0
 10
-111.5332008647467
 20
33.77318908580241
 30
0.0
 10
-111.5333030529556
 20
33.77318608594851
 30
0.0
 10
-111.5333754129129
 20
33.77318862069125
 30
0.0
 10
-111.5334204707428
 20
33.7731901990505
 30
0.0
  0
SPLINE
  5
27CC
330
A
100
AcDbEntity
  8
001
  6
Continuous
370
    15
100
AcDbSpline
210
0.0
220
0.0
230
1.0
 70
     8
 71
     3
 72
    11
 73
     7
 74
     0
 42
0.0000000001
 43
0.0000000001
 40
0.0
 40
0.0
 40
0.0
 40
0.0
 40
0.2500022049813346
 40
0.5000014610854055
 40
0.7500113706376643
 40
1.0
 40
1.0
 40
1.0
 40
1.0
 10
-111.4931797918066
 20
33.77256520709712
 30
0.0
 10
-111.4931014079515
 20
33.77257417846259
 30
0.0
 10
-111.4929446411659
 20
33.7725921210877
 30
0.0
 10
-111.4927453183622
 20
33.77273057735175
 30
0.0
 10
-111.4926029373569
 20
33.77292925442952
 30
0.0
 10
-111.4925798978164
 20
33.77308867872209
 30
0.0
 10
-111.4925683785364
 20
33.7731683874758
 30
0.0
  0
SPLINE
  5
27CD
330
A
100
AcDbEntity
  8
001
  6
Continuous
370
    15
100
AcDbSpline
210
0.0
220
0.0
230
1.0
 70
    24
 71
     3
 72
     9
 73
     5
 74
     0
 42
0.0000000001
 43
0.0000000001
 40
0.0
 40
0.0
 40
0.0
 40
0.0
 40
0.4999999845559421
 40
1.0
 40
1.0
 40
1.0
 40
1.0
 10
-111.4931797918066
 20
33.77256520709712
 30
0.0
 10
-111.4935220373423
 20
33.77256520709712
 30
0.0
 10
-111.4942065284349
 20
33.77256520709712
 30
0.0
 10
-111.4955926033535
 20
33.77256520709712
 30
0.0
 10
-111.4962856408342
 20
33.77256520709712
 30
0.0
  0
SPLINE
  5
27CE
330
A
100
AcDbEntity
  8
001
  6
Continuous
370
    15
100
AcDbSpline
210
0.0
220
0.0
230
1.0
 70
     8
 71
     3
 72
    11
 73
     7
 74
     0
 42
0.0000000001
 43
0.0000000001
 40
0.0
 40
0.0
 40
0.0
 40
0.0
 40
0.2499840282302467
 40
0.5000018423235937
 40
0.7499991650404442
 40
1.0
 40
1.0
 40
1.0
 40
1.0
 10
-111.5366144973918
 20
33.7731683874758
 30
0.0
 10
-111.5366029793503
 20
33.7730886777238
 30
0.0
 10
-111.5365799417106
 20
33.77292924744689
 30
0.0
 10
-111.5364375365478
 20
33.77273058233789
 30
0.0
 10
-111.5362382171019
 20
33.77259212018652
 30
0.0
 10
-111.5360814497311
 20
33.77257417816894
 30
0.0
 10
-111.5360030654952
 20
33.77256520709712
 30
0.0
  0
SPLINE
  5
27CF
330
A
100
AcDbEntity
  8
001
  6
Continuous
370
    15
100
AcDbSpline
210
0.0
220
0.0
230
1.0
 70
    24
 71
     3
 72
     9
 73
     5
 74
     0
 42
0.0000000001
 43
0.0000000001
 40
0.0
 40
0.0
 40
0.0
 40
0.0
 40
0.4999998187707253
 40
1.0
 40
1.0
 40
1.0
 40
1.0
 10
-111.5328972537204
 20
33.77256520709712
 30
0.0
 10
-111.5335902850481
 20
33.77256520709712
 30
0.0
 10
-111.5349763482059
 20
33.77256520709712
 30
0.0
 10
-111.535660826316
 20
33.77256520709712
 30
0.0
 10
-111.5360030654952
 20
33.77256520709712
 30
0.0
  0
LINE
  5
27D0
330
A
100
AcDbEntity
  8
001
  6
Continuous
370
    15
100
AcDbLine
 10
-111.4957623865589
 20
33.77319019905058
 30
0.0
 11
-111.4925676148519
 21
33.77319019905058
 31
0.0
  0
LINE
  5
27D1
330
A
100
AcDbEntity
  8
001
  6
Continuous
370
    15
100
AcDbLine
 10
-111.5366152797029
 20
33.77319019905058
 30
0.0
 11
-111.5334204707429
 21
33.77319019905058
 31
0.0
  0
SPLINE
  5
27D2
330
A
100
AcDbEntity
  8
001
  6
Continuous
370
    15
100
AcDbSpline
210
0.0
220
0.0
230
1.0
 70
     8
 71
     3
 72
    12
 73
     8
 74
     0
 42
0.0000000001
 43
0.0000000001
 40
0.0
 40
0.0
 40
0.0
 40
0.0
 40
0.2411880979914418
 40
0.4949137745107665
 40
0.7209757072278986
 40
0.8539839125314955
 40
1.0
 40
1.0
 40
1.0
 40
1.0
 10
-111.4927169431135
 20
33.77730724087674
 30
0.0
 10
-111.4927454845372
 20
33.7775008541981
 30
0.0
 10
-111.4928040510414
 20
33.77789814535994
 30
0.0
 10
-111.4931578734815
 20
33.77838429272983
 30
0.0
 10
-111.4935716502677
 20
33.77866136718369
 30
0.0
 10
-111.4939585717077
 20
33.77879356551797
 30
0.0
 10
-111.494182527576
 20
33.77880776855251
 30
0.0
 10
-111.494299725829
 20
33.77881520113666
 30
0.0
  0
SPLINE
  5
27D3
330
A
100
AcDbEntity
  8
001
  6
Continuous
370
    15
100
AcDbSpline
210
0.0
220
0.0
230
1.0
 70
    24
 71
     3
 72
     9
 73
     5
 74
     0
 42
0.0000000001
 43
0.0000000001
 40
0.0
 40
0.0
 40
0.0
 40
0.0
 40
0.5000004398349552
 40
1.0
 40
1.0
 40
1.0
 40
1.0
 10
-111.4970284637197
 20
33.77881520113666
 30
0.0
 10
-111.4964314332911
 20
33.77881520113666
 30
0.0
 10
-111.4952373734841
 20
33.77881520113666
 30
0.0
 10
-111.4946122748641
 20
33.77881520113666
 30
0.0
 10
-111.494299725829
 20
33.77881520113666
 30
0.0
  0
SPLINE
  5
27D4
330
A
100
AcDbEntity
  8
001
  6
Continuous
370
    15
100
AcDbSpline
210
0.0
220
0.0
230
1.0
 70
     8
 71
     3
 72
    12
 73
     8
 74
     0
 42
0.0000000001
 43
0.0000000001
 40
0.0
 40
0.0
 40
0.0
 40
0.0
 40
0.1459354666004685
 40
0.2789134834968702
 40
0.5050898543318482
 40
0.7587966382229007
 40
1.0
 40
1.0
 40
1.0
 40
1.0
 10
-111.5348831314727
 20
33.77881520113666
 30
0.0
 10
-111.535000266732
 20
33.77880778372673
 30
0.0
 10
-111.5352241369395
 20
33.77879360749056
 30
0.0
 10
-111.535611071991
 20
33.77866143967561
 30
0.0
 10
-111.5360249385231
 20
33.77838438333782
 30
0.0
 10
-111.5363788144009
 20
33.77789815689276
 30
0.0
 10
-111.5364373865999
 20
33.77750086716963
 30
0.0
 10
-111.5364659328147
 20
33.77730724087674
 30
0.0
  0
SPLINE
  5
27D5
330
A
100
AcDbEntity
  8
001
  6
Continuous
370
    15
100
AcDbSpline
210
0.0
220
0.0
230
1.0
 70
    24
 71
     3
 72
     9
 73
     5
 74
     0
 42
0.0000000001
 43
0.0000000001
 40
0.0
 40
0.0
 40
0.0
 40
0.0
 40
0.5000003485464379
 40
1.0
 40
1.0
 40
1.0
 40
1.0
 10
-111.5348831314727
 20
33.77881520113666
 30
0.0
 10
-111.5345705829457
 20
33.77881520113666
 30
0.0
 10
-111.5339454863274
 20
33.77881520113666
 30
0.0
 10
-111.5327514242197
 20
33.77881520113666
 30
0.0
 10
-111.532154393582
 20
33.77881520113666
 30
0.0
  0
ARC
  5
27D6
330
A
100
AcDbEntity
  8
001
  6
Continuous
370
    15
100
AcDbCircle
 10
-111.5366088730131
 20
33.77296681387108
 30
0.0
 40
0.0002016520560529
100
AcDbArc
 50
91.59827258660014
 51
95.35284583209966
  0
ARC
  5
27D7
330
A
100
AcDbEntity
  8
001
  6
Continuous
370
    15
100
AcDbCircle
 10
-111.4925736225951
 20
33.77297350430508
 30
0.0
 40
0.0001949537134285
100
AcDbArc
 50
84.58045865489987
 51
88.45861522740021
  0
LINE
  5
27D8
330
A
100
AcDbEntity
  8
001
  6
Continuous
370
    15
100
AcDbLine
 10
-111.4925605368004
 20
33.77318760997384
 30
0.0
 11
-111.4925676148519
 21
33.77319019905058
 31
0.0
  0
LINE
  5
27D9
330
A
100
AcDbEntity
  8
001
  6
Continuous
370
    15
100
AcDbLine
 10
-111.4927169431134
 20
33.77730724087683
 30
0.0
 11
-111.4927035320684
 21
33.77730804181409
 31
0.0
  0
SPLINE
  5
27DA
330
A
100
AcDbEntity
  8
001
  6
Continuous
370
    15
100
AcDbSpline
210
0.0
220
0.0
230
1.0
 70
     8
 71
     3
 72
     9
 73
     5
 74
     0
 42
0.0000000001
 43
0.0000000001
 40
0.0
 40
0.0
 40
0.0
 40
0.0
 40
0.500003497101808
 40
1.0
 40
1.0
 40
1.0
 40
1.0
 10
-111.5364425752445
 20
33.77730724087674
 30
0.0
 10
-111.5364582866979
 20
33.77730766928712
 30
0.0
 10
-111.5364897093848
 20
33.7773085261019
 30
0.0
 10
-111.5364738583011
 20
33.77730766928313
 30
0.0
 10
-111.5364659328147
 20
33.77730724087674
 30
0.0
  0
SPLINE
  5
27DB
330
A
100
AcDbEntity
  8
001
  6
Continuous
370
    15
100
AcDbSpline
210
0.0
220
0.0
230
1.0
 70
     8
 71
     3
 72
     9
 73
     5
 74
     0
 42
0.0000000001
 43
0.0000000001
 40
0.0
 40
0.0
 40
0.0
 40
0.0
 40
0.3772868559803033
 40
1.0
 40
1.0
 40
1.0
 40
1.0
 10
-111.5366152797028
 20
33.7731901990505
 30
0.0
 10
-111.536621898797
 20
33.77318907387209
 30
0.0
 10
-111.5366394427269
 20
33.7731860915832
 30
0.0
 10
-111.5366096071
 20
33.77318863429616
 30
0.0
 10
-111.5365910280629
 20
33.77319021767695
 30
0.0
  0
ARC
  5
27DC
330
A
100
AcDbEntity
  8
001
  6
Continuous
370
    15
100
AcDbCircle
 10
-111.5366093148331
 20
33.77297408848783
 30
0.0
 40
0.0001943680932786
100
AcDbArc
 50
91.5278944718003
 51
95.42322394689989
  0
SPLINE
  5
27DD
330
A
100
AcDbEntity
  8
001
  6
Continuous
370
    15
100
AcDbSpline
210
0.0
220
0.0
230
1.0
 70
    24
 71
     3
 72
    15
 73
    11
 74
     0
 42
0.0000000001
 43
0.0000000001
 40
0.0
 40
0.0
 40
0.0
 40
0.0
 40
0.116515978320833
 40
0.2400114173017175
 40
0.3686407181666311
 40
0.4999999431452941
 40
0.6313589218684168
 40
0.7599886753800151
 40
0.8834836333648807
 40
1.0
 40
1.0
 40
1.0
 40
1.0
 10
-111.4990914363548
 20
33.7379402170213
 30
0.0
 10
-111.4991417173238
 20
33.7379402170213
 30
0.0
 10
-111.4992452911583
 20
33.7379402170213
 30
0.0
 10
-111.5001076870375
 20
33.7379402170213
 30
0.0
 10
-111.5015376310145
 20
33.7379402170213
 30
0.0
 10
-111.5035537372404
 20
33.7379402170213
 30
0.0
 10
-111.506031871621
 20
33.7379402170213
 30
0.0
 10
-111.5088099210278
 20
33.7379402170213
 30
0.0
 10
-111.5116986882593
 20
33.7379402170213
 30
0.0
 10
-111.5136460620692
 20
33.7379402170213
 30
0.0
 10
-111.5145914379641
 20
33.7379402170213
 30
0.0
  0
SPLINE
  5
27DE
330
A
100
AcDbEntity
  8
001
  6
Continuous
370
    15
100
AcDbSpline
210
0.0
220
0.0
230
1.0
 70
    24
 71
     3
 72
    15
 73
    11
 74
     0
 42
0.0000000001
 43
0.0000000001
 40
0.0
 40
0.0
 40
0.0
 40
0.0
 40
0.1165156032818207
 40
0.2400112973911607
 40
0.3686410505823344
 40
0.4999994342181167
 40
0.631359142012181
 40
0.7599887950383039
 40
0.8834840219694156
 40
1.0
 40
1.0
 40
1.0
 40
1.0
 10
-111.5145914379641
 20
33.7379402170213
 30
0.0
 10
-111.5155368074809
 20
33.7379402170213
 30
0.0
 10
-111.5174841806897
 20
33.7379402170213
 30
0.0
 10
-111.5203729491035
 20
33.7379402170213
 30
0.0
 10
-111.5231510033156
 20
33.7379402170213
 30
0.0
 10
-111.5256291214301
 20
33.7379402170213
 30
0.0
 10
-111.5276452418645
 20
33.7379402170213
 30
0.0
 10
-111.5290752163415
 20
33.7379402170213
 30
0.0
 10
-111.5299375786468
 20
33.7379402170213
 30
0.0
 10
-111.5300411565734
 20
33.7379402170213
 30
0.0
 10
-111.5300914395734
 20
33.7379402170213
 30
0.0
  0
SPLINE
  5
27DF
330
A
100
AcDbEntity
  8
001
  6
Continuous
370
    15
100
AcDbSpline
210
0.0
220
0.0
230
1.0
 70
     8
 71
     3
 72
    12
 73
     8
 74
     0
 42
0.0000000001
 43
0.0000000001
 40
0.0
 40
0.0
 40
0.0
 40
0.0
 40
0.2104914607752997
 40
0.4208283114401968
 40
0.6351134816489271
 40
0.8521559595350451
 40
1.0
 40
1.0
 40
1.0
 40
1.0
 10
-111.5320516500756
 20
33.72169020271618
 30
0.0
 10
-111.5320636945422
 20
33.72120665189819
 30
0.0
 10
-111.5320877746286
 20
33.72023990543979
 30
0.0
 10
-111.5322558154701
 20
33.71894340267279
 30
0.0
 10
-111.532440162506
 20
33.71795540802675
 30
0.0
 10
-111.5325764009866
 20
33.71737628885075
 30
0.0
 10
-111.5325781991058
 20
33.71736985309587
 30
0.0
 10
-111.5325789276644
 20
33.71736724546869
 30
0.0
  0
SPLINE
  5
27E0
330
A
100
AcDbEntity
  8
001
  6
Continuous
370
    15
100
AcDbSpline
210
0.0
220
0.0
230
1.0
 70
     8
 71
     3
 72
    13
 73
     9
 74
     0
 42
0.0000000001
 43
0.0000000001
 40
0.0
 40
0.0
 40
0.0
 40
0.0
 40
0.0649349517253444
 40
0.2731397249227697
 40
0.4831946415668912
 40
0.6986163191712781
 40
0.9149163144741542
 40
1.0
 40
1.0
 40
1.0
 40
1.0
 10
-111.5325789276644
 20
33.72601317859013
 30
0.0
 10
-111.5325825186618
 20
33.72602813871117
 30
0.0
 10
-111.5325976236863
 20
33.72609106635242
 30
0.0
 10
-111.5325063598614
 20
33.72571528060389
 30
0.0
 10
-111.5323389770243
 20
33.72492066810516
 30
0.0
 10
-111.5321535650988
 20
33.72372494915252
 30
0.0
 10
-111.5320607531739
 20
33.72257557642685
 30
0.0
 10
-111.5320536541908
 20
33.72188512437045
 30
0.0
 10
-111.5320516500756
 20
33.72169020271618
 30
0.0
  0
SPLINE
  5
27E1
330
A
100
AcDbEntity
  8
001
  6
Continuous
370
    15
100
AcDbSpline
210
0.0
220
0.0
230
1.0
 70
     8
 71
     3
 72
    12
 73
     8
 74
     0
 42
0.0000000001
 43
0.0000000001
 40
0.0
 40
0.0
 40
0.0
 40
0.0
 40
0.2142835490130308
 40
0.4285515184350383
 40
0.6433306366873186
 40
0.8584395751796797
 40
1.0
 40
1.0
 40
1.0
 40
1.0
 10
-111.4966593805834
 20
33.71106520912368
 30
0.0
 10
-111.4966578422752
 20
33.71124044103928
 30
0.0
 10
-111.4966547657706
 20
33.71159089213017
 30
0.0
 10
-111.4966332332181
 20
33.71205926349409
 30
0.0
 10
-111.4966098630219
 20
33.71240961525592
 30
0.0
 10
-111.4965930796711
 20
33.71260896694549
 30
0.0
 10
-111.4965931263824
 20
33.71260816866866
 30
0.0
 10
-111.4965931449219
 20
33.71260785183627
 30
0.0
  0
SPLINE
  5
27E2
330
A
100
AcDbEntity
  8
001
  6
Continuous
370
    15
100
AcDbSpline
210
0.0
220
0.0
230
1.0
 70
     8
 71
     3
 72
    13
 73
     9
 74
     0
 42
0.0000000001
 43
0.0000000001
 40
0.0
 40
0.0
 40
0.0
 40
0.0
 40
0.0729330838057839
 40
0.2867277329980159
 40
0.5008166652427711
 40
0.7156094565622523
 40
0.9304279542419358
 40
1.0
 40
1.0
 40
1.0
 40
1.0
 10
-111.4965931449219
 20
33.70952256641109
 30
0.0
 10
-111.4965926787709
 20
33.70951710612689
 30
0.0
 10
-111.4965908461536
 20
33.70949563966988
 30
0.0
 10
-111.49660327288
 20
33.70963938866599
 30
0.0
 10
-111.4966253438518
 20
33.70993913129869
 30
0.0
 10
-111.4966483061068
 20
33.71037762472884
 30
0.0
 10
-111.4966585463585
 20
33.7107766643369
 30
0.0
 10
-111.4966592166149
 20
33.71100849507614
 30
0.0
 10
-111.4966593805834
 20
33.71106520912368
 30
0.0
  0
SPLINE
  5
27E3
330
A
100
AcDbEntity
  8
001
  6
Continuous
370
    15
100
AcDbSpline
210
0.0
220
0.0
230
1.0
 70
     8
 71
     3
 72
    18
 73
    14
 74
     0
 42
0.0000000001
 43
0.0000000001
 40
0.0
 40
0.0
 40
0.0
 40
0.0
 40
0.0356345060578998
 40
0.1419773544760268
 40
0.248659362740069
 40
0.356194735080861
 40
0.463780643738723
 40
0.5002283853802325
 40
0.606928349723116
 40
0.7136028147686684
 40
0.8208958205705657
 40
0.9285976456341632
 40
1.0
 40
1.0
 40
1.0
 40
1.0
 10
-111.4965955477342
 20
33.71928329265434
 30
0.0
 10
-111.4965944039316
 20
33.71927478967398
 30
0.0
 10
-111.4965898467177
 20
33.71924091153761
 30
0.0
 10
-111.4966197841211
 20
33.71946199905226
 30
0.0
 10
-111.4966730009596
 20
33.71992427030662
 30
0.0
 10
-111.4967296246216
 20
33.7206045957115
 30
0.0
 10
-111.4967543882724
 20
33.72123117676018
 30
0.0
 10
-111.4967593894863
 20
33.72186865512
 30
0.0
 10
-111.4967443372674
 20
33.72250813819219
 30
0.0
 10
-111.4966941206845
 20
33.72323660523572
 30
0.0
 10
-111.4966366164141
 20
33.72378411771578
 30
0.0
 10
-111.4965956015526
 20
33.72409745802512
 30
0.0
 10
-111.4965955630742
 20
33.72409722450177
 30
0.0
 10
-111.4965955477342
 20
33.72409713140447
 30
0.0
  0
LINE
  5
27E4
330
A
100
AcDbEntity
  8
001
  6
Continuous
370
    15
100
AcDbLine
 10
-111.5325914446399
 20
33.70731520152409
 30
0.0
 11
-111.4965914312884
 21
33.70731520152409
 31
0.0
  0
LINE
  5
27E5
330
A
100
AcDbEntity
  8
001
  6
Continuous
370
    15
100
AcDbLine
 10
-111.5319664526864
 20
33.70669020957083
 30
0.0
 11
-111.4972164418681
 21
33.70669020957083
 31
0.0
  0
LINE
  5
27E6
330
A
100
AcDbEntity
  8
001
  6
Continuous
370
    15
100
AcDbLine
 10
-111.2145914371026
 20
33.44894020969734
 30
0.0
 11
-111.2145914371026
 21
33.59894020634458
 31
0.0
  0
LINE
  5
27E7
330
A
100
AcDbEntity
  8
001
  6
Continuous
370
    15
100
AcDbLine
 10
-111.2120914371294
 20
33.44894020969734
 30
0.0
 11
-111.2120914371294
 21
33.59894020634458
 31
0.0
  0
LINE
  5
27E8
330
A
100
AcDbEntity
  8
001
  6
Continuous
370
    15
100
AcDbLine
 10
-111.2145914371026
 20
33.48891316831808
 30
0.0
 11
-111.2155914371501
 21
33.48831970396209
 31
0.0
  0
LINE
  5
27E9
330
A
100
AcDbEntity
  8
001
  6
Continuous
370
    15
100
AcDbLine
 10
-111.2155914371501
 20
33.48831970396209
 30
0.0
 11
-111.2155914371501
 21
33.48177896498458
 31
0.0
  0
LINE
  5
27EA
330
A
100
AcDbEntity
  8
001
  6
Continuous
370
    15
100
AcDbLine
 10
-111.2155914371501
 20
33.48177896498458
 30
0.0
 11
-111.2145914371026
 21
33.48118550295708
 31
0.0
  0
LINE
  5
27EB
330
A
100
AcDbEntity
  8
001
  6
Continuous
370
    15
100
AcDbLine
 10
-111.2180914369779
 20
33.49159007345083
 30
0.0
 11
-111.2180914369779
 21
33.48858487012558
 31
0.0
  0
ARC
  5
27EC
330
A
100
AcDbEntity
  8
001
  6
Continuous
370
    15
100
AcDbCircle
 10
-111.2164632398504
 20
33.49148787741209
 30
0.0
 40
0.0016314012123887
100
AcDbArc
 50
116.7926526314001
 51
176.4084628457996
  0
LINE
  5
27EE
330
A
100
AcDbEntity
  8
001
  6
Continuous
370
    15
100
AcDbLine
 10
-111.2180914369779
 20
33.48204413114808
 30
0.0
 11
-111.2180914369779
 21
33.48858487012558
 31
0.0
  0
ARC
  5
27EF
330
A
100
AcDbEntity
  8
001
  6
Continuous
370
    15
100
AcDbCircle
 10
-111.2170733532754
 20
33.49296202581459
 30
0.0
 40
0.0001265328728786
100
AcDbArc
 50
126.6716156975002
 51
188.1273817646002
  0
LINE
  5
27F0
330
A
100
AcDbEntity
  8
001
  6
Continuous
370
    15
100
AcDbLine
 10
-111.2171398872412
 20
33.48056609893908
 30
0.0
 11
-111.2171489222341
 21
33.48057069035933
 31
0.0
  0
LINE
  5
27F1
330
A
100
AcDbEntity
  8
001
  6
Continuous
370
    15
100
AcDbLine
 10
-111.2145914371026
 20
33.48472103628084
 30
0.0
 11
-111.2155914371501
 21
33.48531450063684
 31
0.0
  0
LINE
  5
27F2
330
A
100
AcDbEntity
  8
001
  6
Continuous
370
    15
100
AcDbLine
 10
-111.2350289320706
 20
33.54081520729458
 30
0.0
 11
-111.2349748036026
 21
33.54080646799634
 31
0.0
  0
LINE
  5
27F3
330
A
100
AcDbEntity
  8
001
  6
Continuous
370
    15
100
AcDbLine
 10
-111.2291539408866
 20
33.54081520729458
 30
0.0
 11
-111.2292082672606
 21
33.54080639116234
 31
0.0
  0
LINE
  5
27F4
330
A
100
AcDbEntity
  8
001
  6
Continuous
370
    15
100
AcDbLine
 10
-111.2349760911561
 20
33.54080667521558
 30
0.0
 11
-111.2350289320706
 21
33.54081520729458
 31
0.0
  0
LINE
  5
27F5
330
A
100
AcDbEntity
  8
001
  6
Continuous
370
    15
100
AcDbLine
 10
-111.2383414369209
 20
33.52394020802108
 30
0.0
 11
-111.2383414369209
 21
33.50706520758333
 31
0.0
  0
LINE
  5
27F6
330
A
100
AcDbEntity
  8
001
  6
Continuous
370
    15
100
AcDbLine
 10
-111.2383414369209
 20
33.54081520845884
 30
0.0
 11
-111.2383414369209
 21
33.52394020802108
 31
0.0
  0
ARC
  5
27F7
330
A
100
AcDbEntity
  8
001
  6
Continuous
370
    15
100
AcDbCircle
 10
-111.2291539584839
 20
33.54144018630933
 30
0.0
 40
0.0006249790149995
100
AcDbArc
 50
179.9951851748996
 51
270.0016132459996
  0
SPLINE
  5
27F8
330
A
100
AcDbEntity
  8
001
  6
Continuous
370
    15
100
AcDbSpline
210
0.0
220
0.0
230
1.0
 70
     8
 71
     3
 72
    13
 73
     9
 74
     0
 42
0.0000000001
 43
0.0000000001
 40
0.0
 40
0.0
 40
0.0
 40
0.0
 40
0.2394666602569538
 40
0.3683776798684366
 40
0.5000229704933062
 40
0.6316145127035046
 40
0.7605328254560221
 40
1.0
 40
1.0
 40
1.0
 40
1.0
 10
-111.2344039354607
 20
33.54144023882914
 30
0.0
 10
-111.2344122772001
 20
33.54136160984174
 30
0.0
 10
-111.2344251095108
 20
33.5412406528621
 30
0.0
 10
-111.2345030668524
 20
33.5410951684874
 30
0.0
 10
-111.2345836389234
 20
33.54099494135922
 30
0.0
 10
-111.2346840475327
 20
33.54091467222132
 30
0.0
 10
-111.2348292574896
 20
33.54083623231202
 30
0.0
 10
-111.2349502690809
 20
33.54082349022535
 30
0.0
 10
-111.2350289320707
 20
33.54081520729456
 30
0.0
  0
LINE
  5
27F9
330
A
100
AcDbEntity
  8
001
  6
Continuous
370
    15
100
AcDbLine
 10
-111.2344039354606
 20
33.54144023882909
 30
0.0
 11
-111.2343204330786
 21
33.54142308270309
 31
0.0
  0
LINE
  5
27FA
330
A
100
AcDbEntity
  8
001
  6
Continuous
370
    15
100
AcDbLine
 10
-111.2298208842654
 20
33.54143119219458
 30
0.0
 11
-111.2297789374966
 21
33.54144023882909
 31
0.0
  0
LINE
  5
27FB
330
A
100
AcDbEntity
  8
001
  6
Continuous
370
    15
100
AcDbLine
 10
-111.2297789374966
 20
33.54144023882909
 30
0.0
 11
-111.2298183126509
 21
33.54143214796433
 31
0.0
  0
LINE
  5
27FC
330
A
100
AcDbEntity
  8
001
  6
Continuous
370
    15
100
AcDbLine
 10
-111.2343621796131
 20
33.54143123293983
 30
0.0
 11
-111.2344039354606
 21
33.54144023882909
 31
0.0
  0
LINE
  5
27FD
330
A
100
AcDbEntity
  8
001
  6
Continuous
370
    15
100
AcDbLine
 10
-111.2297789374966
 20
33.54231520823883
 30
0.0
 11
-111.2344039377889
 21
33.54231520823883
 31
0.0
  0
LINE
  5
27FE
330
A
100
AcDbEntity
  8
001
  6
Continuous
370
    15
100
AcDbLine
 10
-111.2286539370794
 20
33.54331520770434
 30
0.0
 11
-111.2355289382061
 21
33.54331520770434
 31
0.0
  0
SPLINE
  5
27FF
330
A
100
AcDbEntity
  8
001
  6
Continuous
370
    15
100
AcDbSpline
210
0.0
220
0.0
230
1.0
 70
     8
 71
     3
 72
     9
 73
     5
 74
     0
 42
0.0000000001
 43
0.0000000001
 40
0.0
 40
0.0
 40
0.0
 40
0.0
 40
0.7700164605843101
 40
1.0
 40
1.0
 40
1.0
 40
1.0
 10
-111.2341581128671
 20
33.54581226280648
 30
0.0
 10
-111.2341588995507
 20
33.5458136265667
 30
0.0
 10
-111.234159921196
 20
33.54581539764599
 30
0.0
 10
-111.2341598290632
 20
33.54581523598115
 30
0.0
 10
-111.2341598078742
 20
33.5458151988009
 30
0.0
  0
LINE
  5
2800
330
A
100
AcDbEntity
  8
001
  6
Continuous
370
    15
100
AcDbLine
 10
-111.2341581128671
 20
33.54581226280658
 30
0.0
 11
-111.2340683566539
 21
33.54581520811408
 31
0.0
  0
SPLINE
  5
2801
330
A
100
AcDbEntity
  8
001
  6
Continuous
370
    15
100
AcDbSpline
210
0.0
220
0.0
230
1.0
 70
    24
 71
     3
 72
    11
 73
     7
 74
     0
 42
0.0000000001
 43
0.0000000001
 40
0.0
 40
0.0
 40
0.0
 40
0.0
 40
0.2502572681526307
 40
0.500004775047869
 40
0.7499139713392717
 40
1.0
 40
1.0
 40
1.0
 40
1.0
 10
-111.2327164371632
 20
33.54581520811413
 30
0.0
 10
-111.232871374771
 20
33.54581520811413
 30
0.0
 10
-111.2331809343868
 20
33.54581520811413
 30
0.0
 10
-111.2335694319041
 20
33.54581520811413
 30
0.0
 10
-111.2338868388692
 20
33.54581520811413
 30
0.0
 10
-111.2340078364614
 20
33.54581520811413
 30
0.0
 10
-111.234068356654
 20
33.54581520811413
 30
0.0
  0
LINE
  5
2802
330
A
100
AcDbEntity
  8
001
  6
Continuous
370
    15
100
AcDbLine
 10
-111.2327164371631
 20
33.54581520811408
 30
0.0
 11
-111.2327164371631
 21
33.54581226280658
 31
0.0
  0
SPLINE
  5
2803
330
A
100
AcDbEntity
  8
001
  6
Continuous
370
    15
100
AcDbSpline
210
0.0
220
0.0
230
1.0
 70
     8
 71
     3
 72
    11
 73
     7
 74
     0
 42
0.0000000001
 43
0.0000000001
 40
0.0
 40
0.0
 40
0.0
 40
0.0
 40
0.3850090369987804
 40
0.4999990686954854
 40
0.6149909630012197
 40
1.0
 40
1.0
 40
1.0
 40
1.0
 10
-111.2327164371632
 20
33.54581226280648
 30
0.0
 10
-111.2325560191676
 20
33.54581365199368
 30
0.0
 10
-111.2323476893866
 20
33.5458154560872
 30
0.0
 10
-111.2320914374488
 20
33.54581513962924
 30
0.0
 10
-111.2318351855109
 20
33.54581545609122
 30
0.0
 10
-111.2316268549538
 20
33.54581365199251
 30
0.0
 10
-111.2314664369583
 20
33.54581226280648
 30
0.0
  0
LINE
  5
2804
330
A
100
AcDbEntity
  8
001
  6
Continuous
370
    15
100
AcDbLine
 10
-111.2314664369581
 20
33.54581520811408
 30
0.0
 11
-111.2314664369581
 21
33.54581226280658
 31
0.0
  0
SPLINE
  5
2805
330
A
100
AcDbEntity
  8
001
  6
Continuous
370
    15
100
AcDbSpline
210
0.0
220
0.0
230
1.0
 70
    24
 71
     3
 72
    11
 73
     7
 74
     0
 42
0.0000000001
 43
0.0000000001
 40
0.0
 40
0.0
 40
0.0
 40
0.0
 40
0.2502575047227294
 40
0.5000052916450347
 40
0.7499140961217421
 40
1.0
 40
1.0
 40
1.0
 40
1.0
 10
-111.2301145163033
 20
33.54581520811413
 30
0.0
 10
-111.2301750485638
 20
33.54581520811413
 30
0.0
 10
-111.2302959897944
 20
33.54581520811413
 30
0.0
 10
-111.230613601104
 20
33.54581520811413
 30
0.0
 10
-111.2310020997769
 20
33.54581520811413
 30
0.0
 10
-111.2313116213534
 20
33.54581520811413
 30
0.0
 10
-111.2314664369583
 20
33.54581520811413
 30
0.0
  0
LINE
  5
2806
330
A
100
AcDbEntity
  8
001
  6
Continuous
370
    15
100
AcDbLine
 10
-111.2301145163032
 20
33.54581520811408
 30
0.0
 11
-111.2300247612544
 21
33.54581226280658
 31
0.0
  0
SPLINE
  5
2807
330
A
100
AcDbEntity
  8
001
  6
Continuous
370
    15
100
AcDbSpline
210
0.0
220
0.0
230
1.0
 70
     8
 71
     3
 72
     9
 73
     5
 74
     0
 42
0.0000000001
 43
0.0000000001
 40
0.0
 40
0.0
 40
0.0
 40
0.0
 40
0.2299001445278686
 40
1.0
 40
1.0
 40
1.0
 40
1.0
 10
-111.2300230674114
 20
33.5458151988009
 30
0.0
 10
-111.230023045806
 20
33.54581523595292
 30
0.0
 10
-111.2300229518287
 20
33.54581539755362
 30
0.0
 10
-111.2300239740454
 20
33.54581362660995
 30
0.0
 10
-111.2300247612543
 20
33.54581226280648
 30
0.0
  0
LINE
  5
2808
330
A
100
AcDbEntity
  8
001
  6
Continuous
370
    15
100
AcDbLine
 10
-111.4965914312884
 20
33.70956522098509
 30
0.0
 11
-111.4965914312884
 21
33.71256521588883
 31
0.0
  0
SPLINE
  5
2809
330
A
100
AcDbEntity
  8
001
  6
Continuous
370
    15
100
AcDbSpline
210
0.0
220
0.0
230
1.0
 70
     8
 71
     3
 72
    13
 73
     9
 74
     0
 42
0.0000000001
 43
0.0000000001
 40
0.0
 40
0.0
 40
0.0
 40
0.0
 40
0.1903700861504183
 40
0.3801698933487427
 40
0.5846369263935781
 40
0.6978759777973727
 40
0.8147807707857438
 40
1.0
 40
1.0
 40
1.0
 40
1.0
 10
-111.4989664342388
 20
33.64794021158237
 30
0.0
 10
-111.4990195504207
 20
33.64802735127412
 30
0.0
 10
-111.4991256236679
 20
33.64820136961906
 30
0.0
 10
-111.4998893951012
 20
33.64953583431923
 30
0.0
 10
-111.5007186233782
 20
33.65121521640695
 30
0.0
 10
-111.501381282301
 20
33.65297850310947
 30
0.0
 10
-111.5019279337934
 20
33.65485535376938
 30
0.0
 10
-111.5020292925619
 20
33.65638032050873
 30
0.0
 10
-111.5020914312586
 20
33.6573152119549
 30
0.0
  0
SPLINE
  5
280A
330
A
100
AcDbEntity
  8
001
  6
Continuous
370
    15
100
AcDbSpline
210
0.0
220
0.0
230
1.0
 70
     8
 71
     3
 72
    13
 73
     9
 74
     0
 42
0.0000000001
 43
0.0000000001
 40
0.0
 40
0.0
 40
0.0
 40
0.0
 40
0.1868584898398085
 40
0.3727558038778592
 40
0.5814677624369998
 40
0.6954232068368159
 40
0.8133702473688401
 40
1.0
 40
1.0
 40
1.0
 40
1.0
 10
-111.5020914312586
 20
33.68356520927269
 30
0.0
 10
-111.5020260319622
 20
33.68450799908367
 30
0.0
 10
-111.5018955697749
 20
33.68638872911729
 30
0.0
 10
-111.5010300207375
 20
33.68894916294575
 30
0.0
 10
-111.5001909772152
 20
33.6907506803652
 30
0.0
 10
-111.4995702350136
 20
33.691903775959
 30
0.0
 10
-111.4990966805444
 20
33.69272655365006
 30
0.0
 10
-111.4990159202157
 20
33.69285902709084
 30
0.0
 10
-111.4989664342388
 20
33.69294020033199
 30
0.0
  0
LINE
  5
280B
330
A
100
AcDbEntity
  8
001
  6
Continuous
370
    15
100
AcDbLine
 10
-111.5020914312586
 20
33.65731521195483
 30
0.0
 11
-111.5020914312586
 21
33.68356520927259
 31
0.0
  0
LINE
  5
280C
330
A
100
AcDbEntity
  8
001
  6
PHANTOM
370
     0
100
AcDbLine
 10
-111.5011802066251
 20
33.75359792879534
 30
0.0
 11
-111.5280026693031
 21
33.75359792879534
 31
0.0
  0
LINE
  5
280D
330
A
100
AcDbEntity
  8
001
  6
PHANTOM
370
     0
100
AcDbLine
 10
-111.5467450145766
 20
33.72003645322033
 30
0.0
 11
-111.5466720361396
 21
33.72169016546333
 31
0.0
  0
SPLINE
  5
280E
330
A
100
AcDbEntity
  8
001
  6
PHANTOM
370
     0
100
AcDbSpline
210
0.0
220
0.0
230
1.0
 70
     8
 71
     3
 72
    13
 73
     9
 74
     0
 42
0.0000000001
 43
0.0000000001
 40
0.0
 40
0.0
 40
0.0
 40
0.0
 40
0.1951225105625795
 40
0.4264518547357862
 40
0.5562650122575701
 40
0.695151457105493
 40
0.8430767284875003
 40
1.0
 40
1.0
 40
1.0
 40
1.0
 10
-111.5463142965123
 20
33.7295458155008
 30
0.0
 10
-111.5463193448181
 20
33.72947360856721
 30
0.0
 10
-111.5463303781909
 20
33.72931579601823
 30
0.0
 10
-111.5463896737301
 20
33.72816846953351
 30
0.0
 10
-111.5464539277575
 20
33.72673472284153
 30
0.0
 10
-111.5465159032298
 20
33.72529978065825
 30
0.0
 10
-111.5465883644631
 20
33.72358502247372
 30
0.0
 10
-111.5466436021105
 20
33.72233410437444
 30
0.0
 10
-111.5466720361396
 20
33.72169018408973
 30
0.0
  0
LINE
  5
280F
330
A
100
AcDbEntity
  8
001
  6
PHANTOM
370
     0
100
AcDbLine
 10
-111.5347760293766
 20
33.71300914010733
 30
0.0
 11
-111.5347760293766
 21
33.73037126532508
 31
0.0
  0
LINE
  5
2810
330
A
100
AcDbEntity
  8
001
  6
PHANTOM
370
     0
100
AcDbLine
 10
-111.5360914293811
 20
33.68648131063908
 30
0.0
 11
-111.5363514546439
 21
33.68648075184534
 31
0.0
  0
SPLINE
  5
2811
330
A
100
AcDbEntity
  8
001
  6
PHANTOM
370
     0
100
AcDbSpline
210
0.0
220
0.0
230
1.0
 70
     8
 71
     3
 72
    11
 73
     7
 74
     0
 42
0.0000000001
 43
0.0000000001
 40
0.0
 40
0.0
 40
0.0
 40
0.0
 40
0.2492572500607403
 40
0.4996818477275184
 40
0.7503468480553917
 40
1.0
 40
1.0
 40
1.0
 40
1.0
 10
-111.5363514546439
 20
33.68648075184543
 30
0.0
 10
-111.5373761144047
 20
33.68644010366326
 30
0.0
 10
-111.5394302327199
 20
33.68635861693112
 30
0.0
 10
-111.5424924283376
 20
33.68597905003369
 30
0.0
 10
-111.5455519554864
 20
33.68557619676294
 30
0.0
 10
-111.5476050540176
 20
33.68543855298255
 30
0.0
 10
-111.5486295271798
 20
33.68536987027843
 30
0.0
  0
SPLINE
  5
2812
330
A
100
AcDbEntity
  8
001
  6
PHANTOM
370
     0
100
AcDbSpline
210
0.0
220
0.0
230
1.0
 70
     8
 71
     3
 72
    14
 73
    10
 74
     0
 42
0.0000000001
 43
0.0000000001
 40
0.0
 40
0.0
 40
0.0
 40
0.0
 40
0.1171323020178404
 40
0.254849773227914
 40
0.4131438767812145
 40
0.5788010949654
 40
0.7290230743511782
 40
0.8694217436790728
 40
1.0
 40
1.0
 40
1.0
 40
1.0
 10
-111.5486295271798
 20
33.68536987027843
 30
0.0
 10
-111.5485560002076
 20
33.68674117537299
 30
0.0
 10
-111.5483960244204
 20
33.68972478268162
 30
0.0
 10
-111.5481364471649
 20
33.69454727436805
 30
0.0
 10
-111.5478461069337
 20
33.69991748045404
 30
0.0
 10
-111.5475477828309
 20
33.70540634905367
 30
0.0
 10
-111.5472610172709
 20
33.71065737774448
 30
0.0
 10
-111.5469965785057
 20
33.7154779213096
 30
0.0
 10
-111.5468268184748
 20
33.71855410365796
 30
0.0
 10
-111.5467450145766
 20
33.72003645322044
 30
0.0
  0
SPLINE
  5
2813
330
A
100
AcDbEntity
  8
001
  6
PHANTOM
370
     0
100
AcDbSpline
210
0.0
220
0.0
230
1.0
 70
     8
 71
     3
 72
    11
 73
     7
 74
     0
 42
0.0000000001
 43
0.0000000001
 40
0.0
 40
0.0
 40
0.0
 40
0.0
 40
0.2411612733199107
 40
0.5000072857395061
 40
0.7588498050161605
 40
1.0
 40
1.0
 40
1.0
 40
1.0
 10
-111.5361336369201
 20
33.68419020122606
 30
0.0
 10
-111.5361597836801
 20
33.68422154207161
 30
0.0
 10
-111.5362139945836
 20
33.68428652203668
 30
0.0
 10
-111.5362849399012
 20
33.68480854047982
 30
0.0
 10
-111.536336331702
 20
33.6855734397347
 30
0.0
 10
-111.5363465339999
 20
33.68618553416246
 30
0.0
 10
-111.5363514546439
 20
33.68648075184543
 30
0.0
  0
LINE
  5
2814
330
A
100
AcDbEntity
  8
001
  6
PHANTOM
370
     0
100
AcDbLine
 10
-111.5486295271799
 20
33.68536987027833
 30
0.0
 11
-111.5486195061489
 21
33.68516643217533
 31
0.0
  0
SPLINE
  5
2815
330
A
100
AcDbEntity
  8
001
  6
PHANTOM
370
     0
100
AcDbSpline
210
0.0
220
0.0
230
1.0
 70
     8
 71
     3
 72
     9
 73
     5
 74
     0
 42
0.0000000001
 43
0.0000000001
 40
0.0
 40
0.0
 40
0.0
 40
0.0
 40
0.4999970357202508
 40
1.0
 40
1.0
 40
1.0
 40
1.0
 10
-111.5192074265465
 20
33.77730724087674
 30
0.0
 10
-111.5191499172126
 20
33.77730766928343
 30
0.0
 10
-111.519034897863
 20
33.7773085261019
 30
0.0
 10
-111.5189231215328
 20
33.77730766928682
 30
0.0
 10
-111.5188672330364
 20
33.77730724087674
 30
0.0
  0
LINE
  5
2816
330
A
100
AcDbEntity
  8
001
  6
PHANTOM
370
     0
100
AcDbLine
 10
-111.5188549768314
 20
33.77319019905058
 30
0.0
 11
-111.5188672330364
 21
33.77730724087683
 31
0.0
  0
LINE
  5
2817
330
A
100
AcDbEntity
  8
001
  6
PHANTOM
370
     0
100
AcDbLine
 10
-111.5191958967729
 20
33.77319019905058
 30
0.0
 11
-111.5192074265464
 21
33.77730724087683
 31
0.0
  0
LINE
  5
2818
330
A
100
AcDbEntity
  8
001
  6
PHANTOM
370
     0
100
AcDbLine
 10
-111.5188550885901
 20
33.77316838747583
 30
0.0
 11
-111.5188549768314
 21
33.77319019905058
 31
0.0
  0
ARC
  5
2819
330
A
100
AcDbEntity
  8
001
  6
PHANTOM
370
     0
100
AcDbCircle
 10
-111.5190254554286
 20
33.79019603658333
 30
0.0
 40
0.0170285013723076
100
AcDbArc
 50
269.4267573253997
 51
270.5732426746002
  0
LINE
  5
281A
330
A
100
AcDbEntity
  8
001
  6
PHANTOM
370
     0
100
AcDbLine
 10
-111.5191958222671
 20
33.77316838747583
 30
0.0
 11
-111.5191958967729
 21
33.77319019905058
 31
0.0
  0
SPLINE
  5
281B
330
A
100
AcDbEntity
  8
001
  6
PHANTOM
370
     0
100
AcDbSpline
210
0.0
220
0.0
230
1.0
 70
     8
 71
     3
 72
     9
 73
     5
 74
     0
 42
0.0000000001
 43
0.0000000001
 40
0.0
 40
0.0
 40
0.0
 40
0.0
 40
0.5000029642797493
 40
1.0
 40
1.0
 40
1.0
 40
1.0
 10
-111.5103156428918
 20
33.77730724087674
 30
0.0
 10
-111.5102597543953
 20
33.77730766928682
 30
0.0
 10
-111.5101479780652
 20
33.7773085261019
 30
0.0
 10
-111.5100329587156
 20
33.77730766928343
 30
0.0
 10
-111.5099754493817
 20
33.77730724087674
 30
0.0
  0
LINE
  5
281C
330
A
100
AcDbEntity
  8
001
  6
PHANTOM
370
     0
100
AcDbLine
 10
-111.5099754493816
 20
33.77730724087683
 30
0.0
 11
-111.5099869791551
 21
33.77319019905058
 31
0.0
  0
LINE
  5
281D
330
A
100
AcDbEntity
  8
001
  6
PHANTOM
370
     0
100
AcDbLine
 10
-111.5103156428919
 20
33.77730724087683
 30
0.0
 11
-111.5103278804704
 21
33.77319019905058
 31
0.0
  0
LINE
  5
281E
330
A
100
AcDbEntity
  8
001
  6
PHANTOM
370
     0
100
AcDbLine
 10
-111.5099869791551
 20
33.77319019905058
 30
0.0
 11
-111.5099869605286
 21
33.77316838747583
 31
0.0
  0
ARC
  5
281F
330
A
100
AcDbEntity
  8
001
  6
PHANTOM
370
     0
100
AcDbCircle
 10
-111.5101573366807
 20
33.79019833042758
 30
0.0
 40
0.0170307951950101
100
AcDbArc
 50
269.4268032025996
 51
270.5731967974003
  0
LINE
  5
2820
330
A
100
AcDbEntity
  8
001
  6
PHANTOM
370
     0
100
AcDbLine
 10
-111.5103278804704
 20
33.77319019905058
 30
0.0
 11
-111.5103277128324
 21
33.77316838747583
 31
0.0
  0
SPLINE
  5
2821
330
A
100
AcDbEntity
  8
001
  6
PHANTOM
370
     0
100
AcDbSpline
210
0.0
220
0.0
230
1.0
 70
     8
 71
     3
 72
    11
 73
     7
 74
     0
 42
0.0000000001
 43
0.0000000001
 40
0.0
 40
0.0
 40
0.0
 40
0.0
 40
0.250000614793775
 40
0.4999990629863629
 40
0.7500136347172122
 40
1.0
 40
1.0
 40
1.0
 40
1.0
 10
-111.5190681006893
 20
33.77256520709712
 30
0.0
 10
-111.5190844806903
 20
33.77257417835703
 30
0.0
 10
-111.5191172405504
 20
33.77259212079911
 30
0.0
 10
-111.5191588728628
 20
33.77273058011964
 30
0.0
 10
-111.5191886300321
 20
33.77292925056204
 30
0.0
 10
-111.5191934249457
 20
33.77308867816913
 30
0.0
 10
-111.5191958222672
 20
33.7731683874758
 30
0.0
  0
SPLINE
  5
2822
330
A
100
AcDbEntity
  8
001
  6
PHANTOM
370
     0
100
AcDbSpline
210
0.0
220
0.0
230
1.0
 70
     8
 71
     3
 72
    11
 73
     7
 74
     0
 42
0.0000000001
 43
0.0000000001
 40
0.0
 40
0.0
 40
0.0
 40
0.0
 40
0.2499858958036187
 40
0.5000007854750096
 40
0.7499989017151867
 40
1.0
 40
1.0
 40
1.0
 40
1.0
 10
-111.51885508859
 20
33.7731683874758
 30
0.0
 10
-111.5188590972669
 20
33.77308867810572
 30
0.0
 10
-111.5188671150855
 20
33.77292925012074
 30
0.0
 10
-111.518916736892
 20
33.77273058044817
 30
0.0
 10
-111.5189861643807
 20
33.77259212058965
 30
0.0
 10
-111.5190407884778
 20
33.77257417829697
 30
0.0
 10
-111.5190681006893
 20
33.77256520709712
 30
0.0
  0
SPLINE
  5
2823
330
A
100
AcDbEntity
  8
001
  6
PHANTOM
370
     0
100
AcDbSpline
210
0.0
220
0.0
230
1.0
 70
     8
 71
     3
 72
    11
 73
     7
 74
     0
 42
0.0000000001
 43
0.0000000001
 40
0.0
 40
0.0
 40
0.0
 40
0.0
 40
0.2500014999765926
 40
0.499999986985835
 40
0.7500138711347601
 40
1.0
 40
1.0
 40
1.0
 40
1.0
 10
-111.5101147752389
 20
33.77256520709712
 30
0.0
 10
-111.5101420812473
 20
33.77257417832929
 30
0.0
 10
-111.510196692935
 20
33.77259212068551
 30
0.0
 10
-111.5102661015783
 20
33.77273057978677
 30
0.0
 10
-111.510315705082
 20
33.77292925082757
 30
0.0
 10
-111.510323710397
 20
33.77308867820969
 30
0.0
 10
-111.5103277128324
 20
33.7731683874758
 30
0.0
  0
SPLINE
  5
2824
330
A
100
AcDbEntity
  8
001
  6
PHANTOM
370
     0
100
AcDbSpline
210
0.0
220
0.0
230
1.0
 70
     8
 71
     3
 72
    11
 73
     7
 74
     0
 42
0.0000000001
 43
0.0000000001
 40
0.0
 40
0.0
 40
0.0
 40
0.0
 40
0.2499866096417654
 40
0.4999979640858573
 40
0.7500006313581911
 40
1.0
 40
1.0
 40
1.0
 40
1.0
 10
-111.5099869605287
 20
33.7731683874758
 30
0.0
 10
-111.509989374516
 20
33.77308867850639
 30
0.0
 10
-111.5099942027294
 20
33.77292925267765
 30
0.0
 10
-111.5100239332896
 20
33.77273057675954
 30
0.0
 10
-111.510065624406
 20
33.77259212235032
 30
0.0
 10
-111.5100983917
 20
33.77257417880873
 30
0.0
 10
-111.5101147752389
 20
33.77256520709712
 30
0.0
  0
SPLINE
  5
2825
330
A
100
AcDbEntity
  8
001
  6
PHANTOM
370
     0
100
AcDbSpline
210
0.0
220
0.0
230
1.0
 70
     8
 71
     3
 72
    11
 73
     7
 74
     0
 42
0.0000000001
 43
0.0000000001
 40
0.0
 40
0.0
 40
0.0
 40
0.0
 40
0.2499836608534185
 40
0.5000032869783336
 40
0.7499924543324279
 40
1.0
 40
1.0
 40
1.0
 40
1.0
 10
-111.5269082162663
 20
33.7731683874758
 30
0.0
 10
-111.5269017857841
 20
33.77308867744204
 30
0.0
 10
-111.5268889238945
 20
33.77292924590661
 30
0.0
 10
-111.5268092406524
 20
33.77273058668678
 30
0.0
 10
-111.5266978064547
 20
33.77259211669111
 30
0.0
 10
-111.5266101178058
 20
33.77257417718158
 30
0.0
 10
-111.5265662718698
 20
33.77256520709712
 30
0.0
  0
LINE
  5
2826
330
A
100
AcDbEntity
  8
001
  6
PHANTOM
370
     0
100
AcDbLine
 10
-111.5269082162664
 20
33.77316838747583
 30
0.0
 11
-111.5191958222671
 21
33.77316838747583
 31
0.0
  0
SPLINE
  5
2827
330
A
100
AcDbEntity
  8
001
  6
PHANTOM
370
     0
100
AcDbSpline
210
0.0
220
0.0
230
1.0
 70
     8
 71
     3
 72
    11
 73
     7
 74
     0
 42
0.0000000001
 43
0.0000000001
 40
0.0
 40
0.0
 40
0.0
 40
0.0
 40
0.2499961264638435
 40
0.5000022944318175
 40
0.7500148622700152
 40
1.0
 40
1.0
 40
1.0
 40
1.0
 10
-111.5026166040584
 20
33.77256520709712
 30
0.0
 10
-111.5025727695788
 20
33.77257417919167
 30
0.0
 10
-111.5024850988589
 20
33.77259212374116
 30
0.0
 10
-111.5023736008415
 20
33.77273057597742
 30
0.0
 10
-111.5022939649519
 20
33.77292925135006
 30
0.0
 10
-111.5022810821054
 20
33.7730886783493
 30
0.0
 10
-111.5022746410355
 20
33.7731683874758
 30
0.0
  0
LINE
  5
2828
330
A
100
AcDbEntity
  8
001
  6
PHANTOM
370
     0
100
AcDbLine
 10
-111.5099869605286
 20
33.77316838747583
 30
0.0
 11
-111.5022746410354
 21
33.77316838747583
 31
0.0
  0
LINE
  5
2829
330
A
100
AcDbEntity
  8
001
  6
PHANTOM
370
     0
100
AcDbLine
 10
-111.5269087750599
 20
33.77319019905058
 30
0.0
 11
-111.5269082162664
 21
33.77316838747583
 31
0.0
  0
LINE
  5
282A
330
A
100
AcDbEntity
  8
001
  6
PHANTOM
370
     0
100
AcDbLine
 10
-111.5267950419471
 20
33.77730724087683
 30
0.0
 11
-111.5269087750599
 21
33.77319019905058
 31
0.0
  0
LINE
  5
282B
330
A
100
AcDbEntity
  8
001
  6
PHANTOM
370
     0
100
AcDbLine
 10
-111.5267950419471
 20
33.77730724087683
 30
0.0
 11
-111.5192074265464
 21
33.77730724087683
 31
0.0
  0
LINE
  5
282C
330
A
100
AcDbEntity
  8
001
  6
PHANTOM
370
     0
100
AcDbLine
 10
-111.5022746410354
 20
33.77316838747583
 30
0.0
 11
-111.5022740822419
 21
33.77319019905058
 31
0.0
  0
LINE
  5
282D
330
A
100
AcDbEntity
  8
001
  6
PHANTOM
370
     0
100
AcDbLine
 10
-111.5099754493816
 20
33.77730724087683
 30
0.0
 11
-111.5023878339811
 21
33.77730724087683
 31
0.0
  0
LINE
  5
282E
330
A
100
AcDbEntity
  8
001
  6
PHANTOM
370
     0
100
AcDbLine
 10
-111.5022740822419
 20
33.77319019905058
 30
0.0
 11
-111.5023878339811
 21
33.77730724087683
 31
0.0
  0
LINE
  5
282F
330
A
100
AcDbEntity
  8
001
  6
PHANTOM
370
     0
100
AcDbLine
 10
-111.5103277128324
 20
33.77316838747583
 30
0.0
 11
-111.5188550885901
 21
33.77316838747583
 31
0.0
  0
LINE
  5
2830
330
A
100
AcDbEntity
  8
001
  6
PHANTOM
370
     0
100
AcDbLine
 10
-111.5188672330364
 20
33.77730724087683
 30
0.0
 11
-111.5103156428919
 21
33.77730724087683
 31
0.0
  0
SPLINE
  5
2831
330
A
100
AcDbEntity
  8
001
  6
PHANTOM
370
     0
100
AcDbSpline
210
0.0
220
0.0
230
1.0
 70
     8
 71
     3
 72
    12
 73
     8
 74
     0
 42
0.0000000001
 43
0.0000000001
 40
0.0
 40
0.0
 40
0.0
 40
0.0
 40
0.2392250059477662
 40
0.4952630488693552
 40
0.7088498753211635
 40
0.8448038158357194
 40
1.0
 40
1.0
 40
1.0
 40
1.0
 10
-111.5103156428918
 20
33.77730724087674
 30
0.0
 10
-111.5103107345632
 20
33.77749918494601
 30
0.0
 10
-111.5103005729425
 20
33.7778965631573
 30
0.0
 10
-111.5102368433898
 20
33.77837553125496
 30
0.0
 10
-111.5101678872223
 20
33.77865240999025
 30
0.0
 10
-111.5101025735454
 20
33.77879113393493
 30
0.0
 10
-111.5100653590835
 20
33.77880683288582
 30
0.0
 10
-111.5100455220922
 20
33.77881520113666
 30
0.0
  0
SPLINE
  5
2832
330
A
100
AcDbEntity
  8
001
  6
PHANTOM
370
     0
100
AcDbSpline
210
0.0
220
0.0
230
1.0
 70
     8
 71
     3
 72
    12
 73
     8
 74
     0
 42
0.0000000001
 43
0.0000000001
 40
0.0
 40
0.0
 40
0.0
 40
0.0
 40
0.1459995336577692
 40
0.27900101803641
 40
0.5050837294268062
 40
0.7587962727189126
 40
1.0
 40
1.0
 40
1.0
 40
1.0
 10
-111.5100455220922
 20
33.77881520113666
 30
0.0
 10
-111.5100395347098
 20
33.77880777612315
 30
0.0
 10
-111.5100280929897
 20
33.77879358713039
 30
0.0
 10
-111.5100088986844
 20
33.77866137045151
 30
0.0
 10
-111.5099917041662
 20
33.77838431413546
 30
0.0
 10
-111.5099776135961
 20
33.77789816435597
 30
0.0
 10
-111.5099761585278
 20
33.77750086820128
 30
0.0
 10
-111.5099754493817
 20
33.77730724087674
 30
0.0
  0
SPLINE
  5
2833
330
A
100
AcDbEntity
  8
001
  6
PHANTOM
370
     0
100
AcDbSpline
210
0.0
220
0.0
230
1.0
 70
     8
 71
     3
 72
    12
 73
     8
 74
     0
 42
0.0000000001
 43
0.0000000001
 40
0.0
 40
0.0
 40
0.0
 40
0.0
 40
0.2411874226316927
 40
0.4949155062297
 40
0.7209771245424639
 40
0.8539832416887087
 40
1.0
 40
1.0
 40
1.0
 40
1.0
 10
-111.5192074265465
 20
33.77730724087674
 30
0.0
 10
-111.519206717126
 20
33.77750085478161
 30
0.0
 10
-111.5192052613983
 20
33.77789814964341
 30
0.0
 10
-111.5191911737425
 20
33.77838428975345
 30
0.0
 10
-111.5191739758524
 20
33.77866136586776
 30
0.0
 10
-111.5191547822174
 20
33.77879356642182
 30
0.0
 10
-111.5191433411265
 20
33.77880776881582
 30
0.0
 10
-111.519137353836
 20
33.77881520113666
 30
0.0
  0
SPLINE
  5
2834
330
A
100
AcDbEntity
  8
001
  6
PHANTOM
370
     0
100
AcDbSpline
210
0.0
220
0.0
230
1.0
 70
     8
 71
     3
 72
    12
 73
     8
 74
     0
 42
0.0000000001
 43
0.0000000001
 40
0.0
 40
0.0
 40
0.0
 40
0.0
 40
0.1551771564717318
 40
0.2911214475406946
 40
0.5047358387420012
 40
0.7607589149075342
 40
1.0
 40
1.0
 40
1.0
 40
1.0
 10
-111.519137353836
 20
33.77881520113666
 30
0.0
 10
-111.5191175167965
 20
33.77880682781013
 30
0.0
 10
-111.5190803013468
 20
33.77879111895843
 30
0.0
 10
-111.5190149805118
 20
33.77865245202883
 30
0.0
 10
-111.5189460428933
 20
33.77837554662951
 30
0.0
 10
-111.518882298375
 20
33.7778965821052
 30
0.0
 10
-111.5188721400782
 20
33.77749919952603
 30
0.0
 10
-111.5188672330364
 20
33.77730724087674
 30
0.0
  0
SPLINE
  5
2835
330
A
100
AcDbEntity
  8
001
  6
PHANTOM
370
     0
100
AcDbSpline
210
0.0
220
0.0
230
1.0
 70
     8
 71
     3
 72
    12
 73
     8
 74
     0
 42
0.0000000001
 43
0.0000000001
 40
0.0
 40
0.0
 40
0.0
 40
0.0
 40
0.2411870477602024
 40
0.4949138017234651
 40
0.7209774426124101
 40
0.8539789251361515
 40
1.0
 40
1.0
 40
1.0
 40
1.0
 10
-111.5023878339812
 20
33.77730724087674
 30
0.0
 10
-111.5024075108024
 20
33.77750085444587
 30
0.0
 10
-111.5024478874748
 20
33.77789814786794
 30
0.0
 10
-111.5026881234681
 20
33.77838429429773
 30
0.0
 10
-111.5029685708756
 20
33.77866136069507
 30
0.0
 10
-111.5032285707729
 20
33.77879356952668
 30
0.0
 10
-111.5033788496556
 20
33.77880776973268
 30
0.0
 10
-111.503457495211
 20
33.77881520113666
 30
0.0
  0
SPLINE
  5
2836
330
A
100
AcDbEntity
  8
001
  6
PHANTOM
370
     0
100
AcDbSpline
210
0.0
220
0.0
230
1.0
 70
     8
 71
     3
 72
    12
 73
     8
 74
     0
 42
0.0000000001
 43
0.0000000001
 40
0.0
 40
0.0
 40
0.0
 40
0.0
 40
0.1459967808048737
 40
0.2790020199579493
 40
0.5050803220869728
 40
0.7587944075440298
 40
1.0
 40
1.0
 40
1.0
 40
1.0
 10
-111.5257253993436
 20
33.77881520113666
 30
0.0
 10
-111.525804022708
 20
33.77880777537345
 30
0.0
 10
-111.5259542731269
 20
33.7787935846295
 30
0.0
 10
-111.526214306074
 20
33.77866137623402
 30
0.0
 10
-111.5264947081787
 20
33.77838430688084
 30
0.0
 10
-111.5267349802343
 20
33.77789816465154
 30
0.0
 10
-111.5267753615725
 20
33.77750086840854
 30
0.0
 10
-111.526795041947
 20
33.77730724087674
 30
0.0
  0
SPLINE
  5
2837
330
A
100
AcDbEntity
  8
001
  6
PHANTOM
370
     0
100
AcDbSpline
210
0.0
220
0.0
230
1.0
 70
     8
 71
     3
 72
    12
 73
     8
 74
     0
 42
0.0000000001
 43
0.0000000001
 40
0.0
 40
0.0
 40
0.0
 40
0.0
 40
0.2392153537297396
 40
0.4952492842495208
 40
0.7067289911751816
 40
0.843209743779634
 40
1.0
 40
1.0
 40
1.0
 40
1.0
 10
-111.4961168851837
 20
33.77730724087674
 30
0.0
 10
-111.4961329428396
 20
33.77749917742356
 30
0.0
 10
-111.4961661871213
 20
33.77789654505045
 30
0.0
 10
-111.4963619305828
 20
33.77837410009664
 30
0.0
 10
-111.4965949890701
 20
33.77865081865675
 30
0.0
 10
-111.4968168418434
 20
33.77879067094261
 30
0.0
 10
-111.4969547398719
 20
33.77880665542142
 30
0.0
 10
-111.4970284637197
 20
33.77881520113666
 30
0.0
  0
LINE
  5
2838
330
A
100
AcDbEntity
  8
001
  6
PHANTOM
370
     0
100
AcDbLine
 10
-111.5021637763961
 20
33.77730724087683
 30
0.0
 11
-111.4961168851836
 21
33.77730724087683
 31
0.0
  0
SPLINE
  5
2839
330
A
100
AcDbEntity
  8
001
  6
PHANTOM
370
     0
100
AcDbSpline
210
0.0
220
0.0
230
1.0
 70
     8
 71
     3
 72
    12
 73
     8
 74
     0
 42
0.0000000001
 43
0.0000000001
 40
0.0
 40
0.0
 40
0.0
 40
0.0
 40
0.1551825806649511
 40
0.2911239312247988
 40
0.5047373318589142
 40
0.7607600277239694
 40
1.0
 40
1.0
 40
1.0
 40
1.0
 10
-111.503457495211
 20
33.77881520113666
 30
0.0
 10
-111.5033564024944
 20
33.77880682860286
 30
0.0
 10
-111.5031667516396
 20
33.77879112165338
 30
0.0
 10
-111.5028522780044
 20
33.77865245017194
 30
0.0
 10
-111.5025209055113
 20
33.77837554606927
 30
0.0
 10
-111.502234371308
 20
33.77789658315605
 30
0.0
 10
-111.5021867703567
 20
33.77749919965647
 30
0.0
 10
-111.5021637763962
 20
33.77730724087674
 30
0.0
  0
SPLINE
  5
283A
330
A
100
AcDbEntity
  8
001
  6
PHANTOM
370
     0
100
AcDbSpline
210
0.0
220
0.0
230
1.0
 70
     8
 71
     3
 72
    11
 73
     7
 74
     0
 42
0.0000000001
 43
0.0000000001
 40
0.0
 40
0.0
 40
0.0
 40
0.0
 40
0.2499993915283434
 40
0.5000029350811221
 40
0.7500087981735969
 40
1.0
 40
1.0
 40
1.0
 40
1.0
 10
-111.5265662718698
 20
33.77256520709712
 30
0.0
 10
-111.526638807056
 20
33.77257417903612
 30
0.0
 10
-111.5267838786331
 20
33.77259212306315
 30
0.0
 10
-111.5269683378376
 20
33.77273057339127
 30
0.0
 10
-111.5271000764847
 20
33.77292925824852
 30
0.0
 10
-111.5271214050102
 20
33.77308867929158
 30
0.0
 10
-111.5271320689603
 20
33.7731683874758
 30
0.0
  0
ARC
  5
283B
330
A
100
AcDbEntity
  8
001
  6
PHANTOM
370
     0
100
AcDbCircle
 10
-111.5270201426134
 20
33.78036073833309
 30
0.0
 40
0.0071932216955947
100
AcDbArc
 50
269.1084431463003
 51
270.8915568536996
  0
ARC
  5
283C
330
A
100
AcDbEntity
  8
001
  6
PHANTOM
370
     0
100
AcDbCircle
 10
-111.5021627146884
 20
33.78036005253283
 30
0.0
 40
0.00719253597825
100
AcDbArc
 50
269.1083581407001
 51
270.8916418592997
  0
SPLINE
  5
283D
330
A
100
AcDbEntity
  8
001
  6
PHANTOM
370
     0
100
AcDbSpline
210
0.0
220
0.0
230
1.0
 70
     8
 71
     3
 72
    11
 73
     7
 74
     0
 42
0.0000000001
 43
0.0000000001
 40
0.0
 40
0.0
 40
0.0
 40
0.0
 40
0.2499846202565673
 40
0.4999957337931143
 40
0.7499915998477733
 40
1.0
 40
1.0
 40
1.0
 40
1.0
 10
-111.5020507883414
 20
33.7731683874758
 30
0.0
 10
-111.5020614431131
 20
33.7730886782978
 30
0.0
 10
-111.5020827537857
 20
33.77292925149427
 30
0.0
 10
-111.5022145226003
 20
33.77273057965837
 30
0.0
 10
-111.5023989802603
 20
33.77259211887378
 30
0.0
 10
-111.5025440615801
 20
33.77257417783926
 30
0.0
 10
-111.5026166040584
 20
33.77256520709712
 30
0.0
  0
SPLINE
  5
283E
330
A
100
AcDbEntity
  8
001
  6
PHANTOM
370
     0
100
AcDbSpline
210
0.0
220
0.0
230
1.0
 70
     8
 71
     3
 72
     9
 73
     5
 74
     0
 42
0.0000000001
 43
0.0000000001
 40
0.0
 40
0.0
 40
0.0
 40
0.0
 40
0.4999899828819538
 40
1.0
 40
1.0
 40
1.0
 40
1.0
 10
-111.5023878339812
 20
33.77730724087674
 30
0.0
 10
-111.5023415640686
 20
33.7773076692794
 30
0.0
 10
-111.5022490223895
 20
33.7773085261019
 30
0.0
 10
-111.5021921921068
 20
33.77730766929085
 30
0.0
 10
-111.5021637763962
 20
33.77730724087674
 30
0.0
  0
LINE
  5
283F
330
A
100
AcDbEntity
  8
001
  6
PHANTOM
370
     0
100
AcDbLine
 10
-111.5020501550421
 20
33.77319019905058
 30
0.0
 11
-111.5021637763961
 21
33.77730724087683
 31
0.0
  0
LINE
  5
2840
330
A
100
AcDbEntity
  8
001
  6
PHANTOM
370
     0
100
AcDbLine
 10
-111.5020507883414
 20
33.77316838747583
 30
0.0
 11
-111.5020501550421
 21
33.77319019905058
 31
0.0
  0
LINE
  5
2841
330
A
100
AcDbEntity
  8
001
  6
PHANTOM
370
     0
100
AcDbLine
 10
-111.5271327022596
 20
33.77319019905058
 30
0.0
 11
-111.5271320689604
 21
33.77316838747583
 31
0.0
  0
SPLINE
  5
2842
330
A
100
AcDbEntity
  8
001
  6
PHANTOM
370
     0
100
AcDbSpline
210
0.0
220
0.0
230
1.0
 70
     8
 71
     3
 72
     9
 73
     5
 74
     0
 42
0.0000000001
 43
0.0000000001
 40
0.0
 40
0.0
 40
0.0
 40
0.0
 40
0.4999600109424021
 40
1.0
 40
1.0
 40
1.0
 40
1.0
 10
-111.5270190809056
 20
33.77730724087674
 30
0.0
 10
-111.5269906798062
 20
33.77730766926228
 30
0.0
 10
-111.5269338730643
 20
33.7773085261019
 30
0.0
 10
-111.5268413214535
 20
33.77730766930797
 30
0.0
 10
-111.526795041947
 20
33.77730724087674
 30
0.0
  0
LINE
  5
2843
330
A
100
AcDbEntity
  8
001
  6
PHANTOM
370
     0
100
AcDbLine
 10
-111.5270190809056
 20
33.77730724087683
 30
0.0
 11
-111.5271327022596
 21
33.77319019905058
 31
0.0
  0
SPLINE
  5
2844
330
A
100
AcDbEntity
  8
001
  6
PHANTOM
370
     0
100
AcDbSpline
210
0.0
220
0.0
230
1.0
 70
     8
 71
     3
 72
    11
 73
     7
 74
     0
 42
0.0000000001
 43
0.0000000001
 40
0.0
 40
0.0
 40
0.0
 40
0.0
 40
0.2499910428053281
 40
0.5000020718032874
 40
0.7499983694373175
 40
1.0
 40
1.0
 40
1.0
 40
1.0
 10
-111.5331618238374
 20
33.7731683874758
 30
0.0
 10
-111.5331568242501
 20
33.77308867876017
 30
0.0
 10
-111.5331468246757
 20
33.77292925495639
 30
0.0
 10
-111.5330852454089
 20
33.77273057896864
 30
0.0
 10
-111.5329990058937
 20
33.77259212041172
 30
0.0
 10
-111.5329311713527
 20
33.77257417826577
 30
0.0
 10
-111.5328972537204
 20
33.77256520709712
 30
0.0
  0
LINE
  5
2845
330
A
100
AcDbEntity
  8
001
  6
PHANTOM
370
     0
100
AcDbLine
 10
-111.5271320689604
 20
33.77316838747583
 30
0.0
 11
-111.5331618238374
 21
33.77316838747583
 31
0.0
  0
SPLINE
  5
2846
330
A
100
AcDbEntity
  8
001
  6
PHANTOM
370
     0
100
AcDbSpline
210
0.0
220
0.0
230
1.0
 70
     8
 71
     3
 72
    12
 73
     8
 74
     0
 42
0.0000000001
 43
0.0000000001
 40
0.0
 40
0.0
 40
0.0
 40
0.0
 40
0.2392399724671769
 40
0.4952593634702457
 40
0.709101989906158
 40
0.8449853265524716
 40
1.0
 40
1.0
 40
1.0
 40
1.0
 10
-111.5270190809056
 20
33.77730724087674
 30
0.0
 10
-111.5269960949705
 20
33.77749920110801
 30
0.0
 10
-111.5269485109508
 20
33.77789658496059
 30
0.0
 10
-111.5266618772332
 20
33.77837567870317
 30
0.0
 10
-111.5263303605672
 20
33.77865260493186
 30
0.0
 10
-111.5260158717367
 20
33.77879116971573
 30
0.0
 10
-111.5258263775952
 20
33.77880684698347
 30
0.0
 10
-111.5257253993436
 20
33.77881520113666
 30
0.0
  0
SPLINE
  5
2847
330
A
100
AcDbEntity
  8
001
  6
PHANTOM
370
     0
100
AcDbSpline
210
0.0
220
0.0
230
1.0
 70
     8
 71
     3
 72
    11
 73
     7
 74
     0
 42
0.0000000001
 43
0.0000000001
 40
0.0
 40
0.0
 40
0.0
 40
0.0
 40
0.2499988665281203
 40
0.5000012719097576
 40
0.7500145134187021
 40
1.0
 40
1.0
 40
1.0
 40
1.0
 10
-111.4962856408342
 20
33.77256520709712
 30
0.0
 10
-111.4962517180334
 20
33.77257417876204
 30
0.0
 10
-111.4961838719515
 20
33.77259212221888
 30
0.0
 10
-111.4960975968878
 20
33.7727305778674
 30
0.0
 10
-111.496035962646
 20
33.7729292510055
 30
0.0
 10
-111.4960259848383
 20
33.77308867826896
 30
0.0
 10
-111.4960209962114
 20
33.7731683874758
 30
0.0
  0
LINE
  5
2848
330
A
100
AcDbEntity
  8
001
  6
PHANTOM
370
     0
100
AcDbLine
 10
-111.4960209962114
 20
33.77316838747583
 30
0.0
 11
-111.5020507883414
 21
33.77316838747583
 31
0.0
  0
LINE
  5
2849
330
A
100
AcDbEntity
  8
001
  6
PHANTOM
370
     0
100
AcDbLine
 10
-111.5331618238374
 20
33.77316838747583
 30
0.0
 11
-111.5331623081251
 21
33.77319019905058
 31
0.0
  0
LINE
  5
284A
330
A
100
AcDbEntity
  8
001
  6
PHANTOM
370
     0
100
AcDbLine
 10
-111.5331623081251
 20
33.77319019905058
 30
0.0
 11
-111.5330659721181
 21
33.77730724087683
 31
0.0
  0
LINE
  5
284B
330
A
100
AcDbEntity
  8
001
  6
PHANTOM
370
     0
100
AcDbLine
 10
-111.5330659721181
 20
33.77730724087683
 30
0.0
 11
-111.5270190809056
 21
33.77730724087683
 31
0.0
  0
LINE
  5
284C
330
A
100
AcDbEntity
  8
001
  6
PHANTOM
370
     0
100
AcDbLine
 10
-111.4960206050559
 20
33.77319019905058
 30
0.0
 11
-111.4960209962114
 21
33.77316838747583
 31
0.0
  0
LINE
  5
284D
330
A
100
AcDbEntity
  8
001
  6
PHANTOM
370
     0
100
AcDbLine
 10
-111.4961168851836
 20
33.77730724087683
 30
0.0
 11
-111.4960206050559
 21
33.77319019905058
 31
0.0
  0
SPLINE
  5
284E
330
A
100
AcDbEntity
  8
001
  6
PHANTOM
370
     0
100
AcDbSpline
210
0.0
220
0.0
230
1.0
 70
     8
 71
     3
 72
    12
 73
     8
 74
     0
 42
0.0000000001
 43
0.0000000001
 40
0.0
 40
0.0
 40
0.0
 40
0.0
 40
0.1569407828109723
 40
0.2934728962944474
 40
0.5047617969351535
 40
0.7607698257006936
 40
1.0
 40
1.0
 40
1.0
 40
1.0
 10
-111.532154393582
 20
33.77881520113666
 30
0.0
 10
-111.5322281816409
 20
33.77880665249232
 30
0.0
 10
-111.5323661623172
 20
33.77879066687428
 30
0.0
 10
-111.5325879795856
 20
33.77865068347229
 30
0.0
 10
-111.5328209604427
 20
33.77837398032495
 30
0.0
 10
-111.5330167421176
 20
33.7778965786995
 30
0.0
 10
-111.5330499369803
 20
33.77749919929783
 30
0.0
 10
-111.533065972118
 20
33.77730724087674
 30
0.0
  0
ARC
  5
284F
330
A
100
AcDbEntity
  8
001
  6
PHANTOM
370
     0
100
AcDbCircle
 10
-111.4958919707819
 20
33.78281674102408
 30
0.0
 40
0.0096492162247633
100
AcDbArc
 50
269.2338411012002
 51
270.7661588987998
  0
SPLINE
  5
2850
330
A
100
AcDbEntity
  8
001
  6
PHANTOM
370
     0
100
AcDbSpline
210
0.0
220
0.0
230
1.0
 70
     8
 71
     3
 72
    11
 73
     7
 74
     0
 42
0.0000000001
 43
0.0000000001
 40
0.0
 40
0.0
 40
0.0
 40
0.0
 40
0.2499844163057925
 40
0.4999960186861114
 40
0.7499973818727841
 40
1.0
 40
1.0
 40
1.0
 40
1.0
 10
-111.4957629453525
 20
33.7731683874758
 30
0.0
 10
-111.4957727868685
 20
33.77308867831531
 30
0.0
 10
-111.4957924709708
 20
33.77292925132588
 30
0.0
 10
-111.495914198895
 20
33.77273057758971
 30
0.0
 10
-111.4960846038164
 20
33.7725921213359
 30
0.0
 10
-111.4962186283828
 20
33.77257417852506
 30
0.0
 10
-111.4962856408342
 20
33.77256520709712
 30
0.0
  0
ARC
  5
2851
330
A
100
AcDbEntity
  8
001
  6
PHANTOM
370
     0
100
AcDbCircle
 10
-111.5332908492669
 20
33.78281662811809
 30
0.0
 40
0.0096491033288672
100
AcDbArc
 50
269.2338321365001
 51
270.7661678634999
  0
SPLINE
  5
2852
330
A
100
AcDbEntity
  8
001
  6
PHANTOM
370
     0
100
AcDbSpline
210
0.0
220
0.0
230
1.0
 70
     8
 71
     3
 72
    11
 73
     7
 74
     0
 42
0.0000000001
 43
0.0000000001
 40
0.0
 40
0.0
 40
0.0
 40
0.0
 40
0.2499991277158335
 40
0.4999979039582821
 40
0.7500179648449127
 40
1.0
 40
1.0
 40
1.0
 40
1.0
 10
-111.5328972537204
 20
33.77256520709712
 30
0.0
 10
-111.532964260555
 20
33.77257417829481
 30
0.0
 10
-111.5330982741301
 20
33.77259212067761
 30
0.0
 10
-111.5332686544086
 20
33.7727305829593
 30
0.0
 10
-111.5333903951807
 20
33.77292924517842
 30
0.0
 10
-111.5334100486894
 20
33.77308867741834
 30
0.0
 10
-111.5334198746964
 20
33.7731683874758
 30
0.0
  0
SPLINE
  5
2853
330
A
100
AcDbEntity
  8
001
  6
PHANTOM
370
     0
100
AcDbSpline
210
0.0
220
0.0
230
1.0
 70
     8
 71
     3
 72
     9
 73
     5
 74
     0
 42
0.0000000001
 43
0.0000000001
 40
0.0
 40
0.0
 40
0.0
 40
0.0
 40
0.5000127507923216
 40
1.0
 40
1.0
 40
1.0
 40
1.0
 10
-111.4961168851837
 20
33.77730724087674
 30
0.0
 10
-111.4960662589025
 20
33.77730766929241
 30
0.0
 10
-111.495965008922
 20
33.7773085261019
 30
0.0
 10
-111.4958948958134
 20
33.77730766927784
 30
0.0
 10
-111.4958598401531
 20
33.77730724087674
 30
0.0
  0
LINE
  5
2854
330
A
100
AcDbEntity
  8
001
  6
PHANTOM
370
     0
100
AcDbLine
 10
-111.4958598401531
 20
33.77730724087683
 30
0.0
 11
-111.4957623865589
 21
33.77319019905058
 31
0.0
  0
LINE
  5
2855
330
A
100
AcDbEntity
  8
001
  6
PHANTOM
370
     0
100
AcDbLine
 10
-111.4957623865589
 20
33.77319019905058
 30
0.0
 11
-111.4957629453524
 21
33.77316838747583
 31
0.0
  0
LINE
  5
2856
330
A
100
AcDbEntity
  8
001
  6
PHANTOM
370
     0
100
AcDbLine
 10
-111.5334198746964
 20
33.77316838747583
 30
0.0
 11
-111.5334204707429
 21
33.77319019905058
 31
0.0
  0
SPLINE
  5
2857
330
A
100
AcDbEntity
  8
001
  6
PHANTOM
370
     0
100
AcDbSpline
210
0.0
220
0.0
230
1.0
 70
     8
 71
     3
 72
     9
 73
     5
 74
     0
 42
0.0000000001
 43
0.0000000001
 40
0.0
 40
0.0
 40
0.0
 40
0.0
 40
0.5000231050104697
 40
1.0
 40
1.0
 40
1.0
 40
1.0
 10
-111.5333230544015
 20
33.77730724087674
 30
0.0
 10
-111.5332879851274
 20
33.77730766929832
 30
0.0
 10
-111.5332178498202
 20
33.7773085261019
 30
0.0
 10
-111.5331165964591
 20
33.77730766927192
 30
0.0
 10
-111.533065972118
 20
33.77730724087674
 30
0.0
  0
LINE
  5
2858
330
A
100
AcDbEntity
  8
001
  6
PHANTOM
370
     0
100
AcDbLine
 10
-111.5334204707429
 20
33.77319019905058
 30
0.0
 11
-111.5333230544016
 21
33.77730724087683
 31
0.0
  0
SPLINE
  5
2859
330
A
100
AcDbEntity
  8
001
  6
PHANTOM
370
     0
100
AcDbSpline
210
0.0
220
0.0
230
1.0
 70
     8
 71
     3
 72
    12
 73
     8
 74
     0
 42
0.0000000001
 43
0.0000000001
 40
0.0
 40
0.0
 40
0.0
 40
0.0
 40
0.1449797927554318
 40
0.2776345779035028
 40
0.5050806113027792
 40
0.7587885577638885
 40
1.0
 40
1.0
 40
1.0
 40
1.0
 10
-111.4970284637197
 20
33.77881520113666
 30
0.0
 10
-111.4969420210375
 20
33.7788078706493
 30
0.0
 10
-111.4967764843296
 20
33.77879383285323
 30
0.0
 10
-111.4964891993861
 20
33.778662378429
 30
0.0
 10
-111.4961835692118
 20
33.77838520254671
 30
0.0
 10
-111.4959229876606
 20
33.77789815650276
 30
0.0
 10
-111.4958805319931
 20
33.77750086897164
 30
0.0
 10
-111.4958598401531
 20
33.77730724087674
 30
0.0
  0
SPLINE
  5
285A
330
A
100
AcDbEntity
  8
001
  6
PHANTOM
370
     0
100
AcDbSpline
210
0.0
220
0.0
230
1.0
 70
     8
 71
     3
 72
    12
 73
     8
 74
     0
 42
0.0000000001
 43
0.0000000001
 40
0.0
 40
0.0
 40
0.0
 40
0.0
 40
0.2411969352987982
 40
0.49492044298722
 40
0.72305643996998
 40
0.855537253815995
 40
1.0
 40
1.0
 40
1.0
 40
1.0
 10
-111.5333230544015
 20
33.77730724087674
 30
0.0
 10
-111.5333023613225
 20
33.77750086362207
 30
0.0
 10
-111.5332599004686
 20
33.77789816491768
 30
0.0
 10
-111.5329990607253
 20
33.77838566851416
 30
0.0
 10
-111.532692973337
 20
33.77866292877987
 30
0.0
 10
-111.5324055953326
 20
33.77879397146887
 30
0.0
 10
-111.5322405083226
 20
33.77880792337156
 30
0.0
 10
-111.532154393582
 20
33.77881520113666
 30
0.0
  0
LINE
  5
285B
330
A
100
AcDbEntity
  8
001
  6
PHANTOM
370
     0
100
AcDbLine
 10
-111.4957629453524
 20
33.77316838747583
 30
0.0
 11
-111.4925683785364
 21
33.77316838747583
 31
0.0
  0
LINE
  5
285C
330
A
100
AcDbEntity
  8
001
  6
PHANTOM
370
     0
100
AcDbLine
 10
-111.5366144973919
 20
33.77316838747583
 30
0.0
 11
-111.5334198746964
 21
33.77316838747583
 31
0.0
  0
LINE
  5
285D
330
A
100
AcDbEntity
  8
001
  6
PHANTOM
370
     0
100
AcDbLine
 10
-111.4958598401531
 20
33.77730724087683
 30
0.0
 11
-111.4927169431134
 21
33.77730724087683
 31
0.0
  0
LINE
  5
285E
330
A
100
AcDbEntity
  8
001
  6
PHANTOM
370
     0
100
AcDbLine
 10
-111.4925676148519
 20
33.77319019905058
 30
0.0
 11
-111.4927169431134
 21
33.77730724087683
 31
0.0
  0
LINE
  5
285F
330
A
100
AcDbEntity
  8
001
  6
PHANTOM
370
     0
100
AcDbLine
 10
-111.4925683785364
 20
33.77316838747583
 30
0.0
 11
-111.4925676148519
 21
33.77319019905058
 31
0.0
  0
LINE
  5
2860
330
A
100
AcDbEntity
  8
001
  6
PHANTOM
370
     0
100
AcDbLine
 10
-111.5364659328146
 20
33.77730724087683
 30
0.0
 11
-111.5366152797029
 21
33.77319019905058
 31
0.0
  0
LINE
  5
2861
330
A
100
AcDbEntity
  8
001
  6
PHANTOM
370
     0
100
AcDbLine
 10
-111.5364659328146
 20
33.77730724087683
 30
0.0
 11
-111.5333230544016
 21
33.77730724087683
 31
0.0
  0
LINE
  5
2862
330
A
100
AcDbEntity
  8
001
  6
PHANTOM
370
     0
100
AcDbLine
 10
-111.5366152797029
 20
33.77319019905058
 30
0.0
 11
-111.5366144973919
 21
33.77316838747583
 31
0.0
  0
LINE
  5
2863
330
A
100
AcDbEntity
  8
001
  6
PHANTOM
370
     0
100
AcDbLine
 10
-111.4927035320684
 20
33.77730804181409
 30
0.0
 11
-111.4927402820571
 21
33.77730724087683
 31
0.0
  0
LINE
  5
2864
330
A
100
AcDbEntity
  8
001
  6
PHANTOM
370
     0
100
AcDbLine
 10
-111.4965914312884
 20
33.73544021195483
 30
0.0
 11
-111.5325914446399
 21
33.73544021195483
 31
0.0
  0
LINE
  5
2865
330
A
100
AcDbEntity
  8
001
  6
PHANTOM
370
     0
100
AcDbLine
 10
-111.2145914371026
 20
33.47922381630858
 30
0.0
 11
-111.2169575383554
 21
33.48062801326384
 31
0.0
  0
SPLINE
  5
2866
330
A
100
AcDbEntity
  8
001
  6
PHANTOM
370
     0
100
AcDbSpline
210
0.0
220
0.0
230
1.0
 70
     8
 71
     3
 72
    11
 73
     7
 74
     0
 42
0.0000000001
 43
0.0000000001
 40
0.0
 40
0.0
 40
0.0
 40
0.0
 40
0.2500946608535751
 40
0.4999953518467334
 40
0.749721984584316
 40
1.0
 40
1.0
 40
1.0
 40
1.0
 10
-111.2169575383555
 20
33.48062801326383
 30
0.0
 10
-111.2170699847899
 20
33.48070345543612
 30
0.0
 10
-111.2172947904471
 20
33.48085428126883
 30
0.0
 10
-111.21753026603
 20
33.48113967981525
 30
0.0
 10
-111.2176882216926
 20
33.48145074495405
 30
0.0
 10
-111.2177070250075
 20
33.48166947790479
 30
0.0
 10
-111.2177164370328
 20
33.4817789649846
 30
0.0
  0
LINE
  5
2867
330
A
100
AcDbEntity
  8
001
  6
PHANTOM
370
     0
100
AcDbLine
 10
-111.2177164370329
 20
33.48177896498458
 30
0.0
 11
-111.2177164370329
 21
33.48831970396209
 31
0.0
  0
SPLINE
  5
2868
330
A
100
AcDbEntity
  8
001
  6
PHANTOM
370
     0
100
AcDbSpline
210
0.0
220
0.0
230
1.0
 70
     8
 71
     3
 72
    11
 73
     7
 74
     0
 42
0.0000000001
 43
0.0000000001
 40
0.0
 40
0.0
 40
0.0
 40
0.0
 40
0.2500940961696559
 40
0.4999959022886693
 40
0.7497204499819969
 40
1.0
 40
1.0
 40
1.0
 40
1.0
 10
-111.2177164370328
 20
33.4883197039621
 30
0.0
 10
-111.2177070016645
 20
33.4884291080514
 30
0.0
 10
-111.2176881381826
 20
33.48864783211242
 30
0.0
 10
-111.2175303618583
 20
33.48895884314446
 30
0.0
 10
-111.2172949466476
 20
33.4892443717384
 30
0.0
 10
-111.2170700909824
 20
33.48939517345717
 30
0.0
 10
-111.2169575383555
 20
33.48947065801118
 30
0.0
  0
LINE
  5
2869
330
A
100
AcDbEntity
  8
001
  6
PHANTOM
370
     0
100
AcDbLine
 10
-111.2169575383554
 20
33.48947065801108
 30
0.0
 11
-111.2145914371026
 21
33.49087485496633
 31
0.0
  0
ARC
  5
286A
330
A
100
AcDbEntity
  8
001
  6
PHANTOM
370
     0
100
AcDbCircle
 10
-111.2165025099902
 20
33.49000110818833
 30
0.0
 40
0.0006988763865104
100
AcDbArc
 50
185.1039571414
 51
229.3764969593001
  0
LINE
  5
286B
330
A
100
AcDbEntity
  8
001
  6
PHANTOM
370
     0
100
AcDbLine
 10
-111.2171986152784
 20
33.48993893398658
 30
0.0
 11
-111.2145914371026
 21
33.49148620071584
 31
0.0
  0
LINE
  5
286C
330
A
100
AcDbEntity
  8
001
  6
PHANTOM
370
     0
100
AcDbLine
 10
-111.2171986152784
 20
33.49294413731183
 30
0.0
 11
-111.2171986152784
 21
33.48993893398658
 31
0.0
  0
LINE
  5
286D
330
A
100
AcDbEntity
  8
001
  6
PHANTOM
370
     0
100
AcDbLine
 10
-111.2145914371026
 20
33.49449140404108
 30
0.0
 11
-111.2171986152784
 21
33.49294413731183
 31
0.0
  0
ARC
  5
286E
330
A
100
AcDbEntity
  8
001
  6
PHANTOM
370
     0
100
AcDbCircle
 10
-111.2177633122144
 20
33.48865115966084
 30
0.0
 40
0.0003347538839831
100
AcDbArc
 50
191.4214721938001
 51
278.0495122594
  0
ARC
  5
286F
330
A
100
AcDbEntity
  8
001
  6
PHANTOM
370
     0
100
AcDbCircle
 10
-111.2164632348561
 20
33.48848267079358
 30
0.0
 40
0.0016314064032843
100
AcDbArc
 50
116.7927570727998
 51
176.4083584043996
  0
ARC
  5
2870
330
A
100
AcDbEntity
  8
001
  6
PHANTOM
370
     0
100
AcDbCircle
 10
-111.2177475199059
 20
33.48216165128084
 30
0.0
 40
0.0003839465409595
100
AcDbArc
 50
214.7668699394997
 51
274.6435332657001
  0
ARC
  5
2871
330
A
100
AcDbEntity
  8
001
  6
PHANTOM
370
     0
100
AcDbCircle
 10
-111.2170984443706
 20
33.48074352457759
 30
0.0
 40
0.0001822014508814
100
AcDbArc
 50
256.8526395680997
 51
320.6559359259002
  0
LINE
  5
2872
330
A
100
AcDbEntity
  8
001
  6
PHANTOM
370
     0
100
AcDbLine
 10
-111.2159195310336
 20
33.52394020802108
 30
0.0
 11
-111.2159195310336
 21
33.55349319905733
 31
0.0
  0
LINE
  5
2873
330
A
100
AcDbEntity
  8
001
  6
PHANTOM
370
     0
100
AcDbLine
 10
-111.2159195310336
 20
33.49438721698458
 30
0.0
 11
-111.2159195310336
 21
33.52394020802108
 31
0.0
  0
LINE
  5
2874
330
A
100
AcDbEntity
  8
001
  6
PHANTOM
370
     0
100
AcDbLine
 10
-111.2250907353259
 20
33.54177443695008
 30
0.0
 11
-111.2250907353259
 21
33.50610597909183
 31
0.0
  0
LINE
  5
2875
330
A
100
AcDbEntity
  8
001
  6
PHANTOM
370
     0
100
AcDbLine
 10
-111.2270594988616
 20
33.52394020802108
 30
0.0
 11
-111.2270594988616
 21
33.54081520845884
 31
0.0
  0
LINE
  5
2876
330
A
100
AcDbEntity
  8
001
  6
PHANTOM
370
     0
100
AcDbLine
 10
-111.2270594988616
 20
33.50706520758333
 30
0.0
 11
-111.2270594988616
 21
33.52394020802108
 31
0.0
  0
SPLINE
  5
2877
330
A
100
AcDbEntity
  8
001
  6
PHANTOM
370
     0
100
AcDbSpline
210
0.0
220
0.0
230
1.0
 70
     8
 71
     3
 72
    17
 73
    13
 74
     0
 42
0.0000000001
 43
0.0000000001
 40
0.0
 40
0.0
 40
0.0
 40
0.0
 40
0.0033489675314033
 40
0.0733561141741069
 40
0.2139788998012423
 40
0.3565425146295164
 40
0.5003264402049124
 40
0.6440630708442694
 40
0.7864442433926749
 40
0.9269048721067921
 40
0.9970909372631076
 40
1.0
 40
1.0
 40
1.0
 40
1.0
 10
-111.2292082672607
 20
33.54080639116224
 30
0.0
 10
-111.2292091420478
 20
33.54080624888367
 30
0.0
 10
-111.2292283034712
 20
33.54080313239997
 30
0.0
 10
-111.2294368454724
 20
33.54077065998638
 30
0.0
 10
-111.2299651237355
 20
33.5406956372381
 30
0.0
 10
-111.2309493306042
 20
33.5406010267452
 30
0.0
 10
-111.2320978182075
 20
33.54056289537517
 30
0.0
 10
-111.2332449078646
 20
33.54060180898695
 30
0.0
 10
-111.2342255872196
 20
33.54069663942969
 30
0.0
 10
-111.2347510935186
 20
33.5407713707769
 30
0.0
 10
-111.2349567723003
 20
33.54080354121142
 30
0.0
 10
-111.2349753517263
 20
33.54080655526152
 30
0.0
 10
-111.2349760911561
 20
33.54080667521563
 30
0.0
  0
SPLINE
  5
2878
330
A
100
AcDbEntity
  8
001
  6
PHANTOM
370
     0
100
AcDbSpline
210
0.0
220
0.0
230
1.0
 70
     8
 71
     3
 72
    16
 73
    12
 74
     0
 42
0.0000000001
 43
0.0000000001
 40
0.0
 40
0.0
 40
0.0
 40
0.0
 40
0.0740125468433767
 40
0.2158805356968608
 40
0.3579031556045703
 40
0.4994958024149476
 40
0.6411622038185718
 40
0.7831995648850633
 40
0.9253052397692007
 40
0.99868753295546
 40
1.0
 40
1.0
 40
1.0
 40
1.0
 10
-111.2343204330787
 20
33.54142308270317
 30
0.0
 10
-111.2342986225313
 20
33.54141839747615
 30
0.0
 10
-111.2342350053088
 20
33.54140473155924
 30
0.0
 10
-111.2337606946672
 20
33.54131492866225
 30
0.0
 10
-111.2330088494832
 20
33.54122015323576
 30
0.0
 10
-111.2320952720986
 20
33.54117821406626
 30
0.0
 10
-111.2311874035787
 20
33.54121858890795
 30
0.0
 10
-111.2304130774716
 20
33.54131689414561
 30
0.0
 10
-111.2299978060635
 20
33.54139486143007
 30
0.0
 10
-111.2298362384919
 20
33.54142786960681
 30
0.0
 10
-111.2298211493969
 20
33.54143113482116
 30
0.0
 10
-111.2298208842653
 20
33.54143119219449
 30
0.0
  0
LINE
  5
2879
330
A
100
AcDbEntity
  8
001
  6
PHANTOM
370
     0
100
AcDbLine
 10
-111.2287728297191
 20
33.54467415169558
 30
0.0
 11
-111.2354100455664
 21
33.54467415169558
 31
0.0
  0
LINE
  5
287A
330
A
100
AcDbEntity
  8
001
  6
PHANTOM
370
     0
100
AcDbLine
 10
-111.4989664342389
 20
33.62706521211883
 30
0.0
 11
-111.5302164230629
 21
33.62706521211883
 31
0.0
  0
LINE
  5
287B
330
A
100
AcDbEntity
  8
001
  6
PHANTOM
370
     0
100
AcDbLine
 10
-111.4114664431794
 20
33.53956520825384
 30
0.0
 11
-111.4114664431794
 21
33.50831520778808
 31
0.0
  0
ARC
  5
2881
330
A
100
AcDbEntity
  8
001
  6
CENTERX2
 48
2.5
370
     0
100
AcDbCircle
 10
-111.4114664370701
 20
33.62706520802108
 30
0.0
 40
0.103125
100
AcDbArc
 50
180.0
 51
270.0
  0
LINE
  5
2882
330
A
100
AcDbEntity
  8
001
  6
CENTERX2
 48
2.5
370
     0
100
AcDbLine
 10
-111.4114664370701
 20
33.52394020802108
 30
0.0
 11
-111.2051196622984
 21
33.52394020802108
 31
0.0
  0
LINE
  5
2883
330
A
100
AcDbEntity
  8
001
  6
CENTERX2
 48
2.5
370
     0
100
AcDbLine
 10
-111.4114664370701
 20
33.52394020802108
 30
0.0
 11
-111.2195914370701
 21
33.52394020802108
 31
0.0
  0
LINE
  5
2884
330
A
100
AcDbEntity
  8
001
  6
CENTERX2
 48
2.5
370
     0
100
AcDbLine
 10
-111.5145914370701
 20
33.78907851844859
 30
0.0
 11
-111.5145914370701
 21
33.62706520802108
 31
0.0
  0
LINE
  5
2885
330
A
100
AcDbEntity
  8
001
  6
Continuous
370
    15
100
AcDbLine
 10
-111.0155533946659
 20
33.76856521389209
 30
0.0
 11
-111.0143598590934
 21
33.75533629826033
 31
0.0
  0
LINE
  5
2886
330
A
100
AcDbEntity
  8
001
  6
Continuous
370
    15
100
AcDbLine
 10
-111.0067469297634
 20
33.75533629826033
 30
0.0
 11
-111.0055533941909
 21
33.76856521389209
 31
0.0
  0
LINE
  5
2887
330
A
100
AcDbEntity
  8
001
  6
Continuous
370
    15
100
AcDbLine
 10
-111.0066033943281
 20
33.78519021591859
 30
0.0
 11
-111.0074783942969
 21
33.78606521210383
 31
0.0
  0
LINE
  5
2888
330
A
100
AcDbEntity
  8
001
  6
Continuous
370
    15
100
AcDbLine
 10
-111.0136283945599
 20
33.78606521210383
 30
0.0
 11
-111.0145033945286
 21
33.78519021591859
 31
0.0
  0
LINE
  5
2889
330
A
100
AcDbEntity
  8
001
  6
Continuous
370
    15
100
AcDbLine
 10
-111.0066033943281
 20
33.77981519943784
 30
0.0
 11
-111.0066033943281
 21
33.78519021591859
 31
0.0
  0
LINE
  5
288A
330
A
100
AcDbEntity
  8
001
  6
Continuous
370
    15
100
AcDbLine
 10
-111.0145033945286
 20
33.78519021591859
 30
0.0
 11
-111.0145033945286
 21
33.77981519943784
 31
0.0
  0
LINE
  5
288B
330
A
100
AcDbEntity
  8
001
  6
Continuous
370
    15
100
AcDbLine
 10
-110.9968688513459
 20
33.73794021702134
 30
0.0
 11
-110.9969233977449
 21
33.74106521404108
 31
0.0
  0
LINE
  5
288C
330
A
100
AcDbEntity
  8
001
  6
Continuous
370
    15
100
AcDbLine
 10
-111.0239646315881
 20
33.75359792879534
 30
0.0
 11
-111.0242379375109
 21
33.73794021702134
 31
0.0
  0
ARC
  5
288D
330
A
100
AcDbEntity
  8
001
  6
Continuous
370
    15
100
AcDbCircle
 10
-111.0220899169304
 20
33.75356520802109
 30
0.0
 40
0.0018750000000001
100
AcDbArc
 50
90.0
 51
178.9999999998003
  0
LINE
  5
288E
330
A
100
AcDbEntity
  8
001
  6
Continuous
370
    15
100
AcDbLine
 10
-110.9918033948474
 20
33.77881520113659
 30
0.0
 11
-110.9918033948474
 21
33.77981519943784
 31
0.0
  0
LINE
  5
288F
330
A
100
AcDbEntity
  8
001
  6
Continuous
370
    15
100
AcDbLine
 10
-111.0293033940094
 20
33.77981519943784
 30
0.0
 11
-111.0293033940094
 21
33.77881520113659
 31
0.0
  0
ARC
  5
2890
330
A
100
AcDbEntity
  8
001
  6
Continuous
370
    15
100
AcDbCircle
 10
-110.9972224425336
 20
33.76631520802109
 30
0.0
 40
0.00625
100
AcDbArc
 50
90.0
 51
158.8998039758999
  0
ARC
  5
2891
330
A
100
AcDbEntity
  8
001
  6
Continuous
370
    15
100
AcDbCircle
 10
-111.0238843463231
 20
33.76631520802109
 30
0.0
 40
0.00625
100
AcDbArc
 50
21.10019602410008
 51
90.0
  0
LINE
  5
2892
330
A
100
AcDbEntity
  8
001
  6
Continuous
370
    15
100
AcDbLine
 10
-110.9885158808744
 20
33.77316177508559
 30
0.0
 11
-110.9886660077451
 21
33.77730807906709
 31
0.0
  0
LINE
  5
2893
330
A
100
AcDbEntity
  8
001
  6
Continuous
370
    15
100
AcDbLine
 10
-111.0324407811119
 20
33.77730807906709
 30
0.0
 11
-111.0325899696749
 21
33.77318768447958
 31
0.0
  0
LINE
  5
2894
330
A
100
AcDbEntity
  8
001
  6
Continuous
370
    15
100
AcDbLine
 10
-111.0325899720034
 20
33.77318762860009
 30
0.0
 11
-111.0325909079824
 21
33.77316177508559
 31
0.0
  0
LINE
  5
2895
330
A
100
AcDbEntity
  8
001
  6
Continuous
370
    15
100
AcDbLine
 10
-111.0325899533769
 20
33.77318764722658
 30
0.0
 11
-111.0325908893561
 21
33.77316177508559
 31
0.0
  0
LINE
  5
2896
330
A
100
AcDbEntity
  8
001
  6
Continuous
370
    15
100
AcDbLine
 10
-110.9885158995006
 20
33.77316177508559
 30
0.0
 11
-110.9885175619117
 21
33.77320770791483
 31
0.0
  0
LINE
  5
2897
330
A
100
AcDbEntity
  8
001
  6
Continuous
370
    15
100
AcDbLine
 10
-110.9886660240431
 20
33.77730800456134
 30
0.0
 11
-110.9886660263714
 21
33.77730807906709
 31
0.0
  0
ARC
  5
2898
330
A
100
AcDbEntity
  8
001
  6
Continuous
370
    15
100
AcDbCircle
 10
-111.0260533944284
 20
33.73544020802109
 30
0.0
 40
0.0025
100
AcDbArc
 50
90.0
 51
180.0
  0
ARC
  5
2899
330
A
100
AcDbEntity
  8
001
  6
Continuous
370
    15
100
AcDbCircle
 10
-110.9950533944284
 20
33.73544020802109
 30
0.0
 40
0.0025
100
AcDbArc
 50
0.0
 51
90.0
  0
LINE
  5
289A
330
A
100
AcDbEntity
  8
001
  6
Continuous
370
    15
100
AcDbLine
 10
-110.9925533947376
 20
33.70731520152409
 30
0.0
 11
-110.9925533947376
 21
33.73544021195483
 31
0.0
  0
LINE
  5
289B
330
A
100
AcDbEntity
  8
001
  6
Continuous
370
    15
100
AcDbLine
 10
-111.0285533941191
 20
33.73544021195483
 30
0.0
 11
-111.0285533941191
 21
33.70731520152409
 31
0.0
  0
LINE
  5
289C
330
A
100
AcDbEntity
  8
001
  6
Continuous
370
    15
100
AcDbLine
 10
-111.0285533941191
 20
33.70731520152409
 30
0.0
 11
-111.0279283940166
 21
33.70669020957083
 31
0.0
  0
LINE
  5
289D
330
A
100
AcDbEntity
  8
001
  6
Continuous
370
    15
100
AcDbLine
 10
-110.9931783948401
 20
33.70669020957083
 30
0.0
 11
-110.9925533947376
 21
33.70731520152409
 31
0.0
  0
LINE
  5
289E
330
A
100
AcDbEntity
  8
001
  6
Continuous
370
    15
100
AcDbLine
 10
-110.9949283941956
 20
33.59729455004208
 30
0.0
 11
-110.9949283941956
 21
33.62706521211883
 31
0.0
  0
LINE
  5
289F
330
A
100
AcDbEntity
  8
001
  6
Continuous
370
    15
100
AcDbLine
 10
-111.0261783946611
 20
33.62706521211883
 30
0.0
 11
-111.0261783946611
 21
33.59729455004208
 31
0.0
  0
LINE
  5
28A0
330
A
100
AcDbEntity
  8
001
  6
Continuous
370
    15
100
AcDbLine
 10
-111.0261783946611
 20
33.70669020957083
 30
0.0
 11
-111.0261783946611
 21
33.62706521211883
 31
0.0
  0
LINE
  5
28A1
330
A
100
AcDbEntity
  8
001
  6
Continuous
370
    15
100
AcDbLine
 10
-110.9949283941956
 20
33.62706521211883
 30
0.0
 11
-110.9949283941956
 21
33.70669020957083
 31
0.0
  0
LINE
  5
28A2
330
A
100
AcDbEntity
  8
001
  6
Continuous
370
    15
100
AcDbLine
 10
-111.0074783942969
 20
33.78606521210383
 30
0.0
 11
-111.0136283945599
 21
33.78606521210383
 31
0.0
  0
LINE
  5
28A3
330
A
100
AcDbEntity
  8
001
  6
Continuous
370
    15
100
AcDbLine
 10
-111.0066033943281
 20
33.78519021591859
 30
0.0
 11
-111.0145033945286
 21
33.78519021591859
 31
0.0
  0
LINE
  5
28A4
330
A
100
AcDbEntity
  8
001
  6
Continuous
370
    15
100
AcDbLine
 10
-110.9977252897646
 20
33.74544021359408
 30
0.0
 11
-110.9978758299099
 21
33.75359792879534
 31
0.0
  0
SPLINE
  5
28A5
330
A
100
AcDbEntity
  8
001
  6
Continuous
370
    15
100
AcDbSpline
210
0.0
220
0.0
230
1.0
 70
     8
 71
     3
 72
    12
 73
     8
 74
     0
 42
0.0000000001
 43
0.0000000001
 40
0.0
 40
0.0
 40
0.0
 40
0.0
 40
0.2063708651506422
 40
0.4124926324149588
 40
0.6251871470614878
 40
0.8445603659937043
 40
1.0
 40
1.0
 40
1.0
 40
1.0
 10
-110.996923397745
 20
33.74106521404106
 30
0.0
 10
-110.9969391487689
 20
33.74111082446624
 30
0.0
 10
-110.9969706318046
 20
33.741201990263
 30
0.0
 10
-110.9971948668759
 20
33.741909730903
 30
0.0
 10
-110.9974618112103
 20
33.74297058641777
 30
0.0
 10
-110.997672033881
 20
33.74421936679051
 30
0.0
 10
-110.9977096781924
 20
33.74508233129269
 30
0.0
 10
-110.9977252897648
 20
33.74544021359403
 30
0.0
  0
SPLINE
  5
28A6
330
A
100
AcDbEntity
  8
001
  6
Continuous
370
    15
100
AcDbSpline
210
0.0
220
0.0
230
1.0
 70
    24
 71
     3
 72
    23
 73
    19
 74
     0
 42
0.0000000001
 43
0.0000000001
 40
0.0
 40
0.0
 40
0.0
 40
0.0
 40
0.0592476477013146
 40
0.1211979094290186
 40
0.1850901771559103
 40
0.2500000403359092
 40
0.31490978206153
 40
0.3788022915063478
 40
0.4407523705391548
 40
0.5000000170187875
 40
0.5592475686289289
 40
0.6211977214986279
 40
0.6850900945646874
 40
0.7500001194358847
 40
0.8149098092021521
 40
0.8788024814035562
 40
0.9407521779822904
 40
1.0
 40
1.0
 40
1.0
 40
1.0
 10
-110.9998786239726
 20
33.75544021523316
 30
0.0
 10
-111.0001438840729
 20
33.75544021523316
 30
0.0
 10
-111.0006865042587
 20
33.75544021523316
 30
0.0
 10
-111.0018735787362
 20
33.75544021523316
 30
0.0
 10
-111.0033376595084
 20
33.75544021523316
 30
0.0
 10
-111.0050577452497
 20
33.75544021523316
 30
0.0
 10
-111.0069502808201
 20
33.75544021523316
 30
0.0
 10
-111.0089254453838
 20
33.75544021523316
 30
0.0
 10
-111.0108889089626
 20
33.75544021523316
 30
0.0
 10
-111.0127928242873
 20
33.75544021523316
 30
0.0
 10
-111.014636440505
 20
33.75544021523316
 30
0.0
 10
-111.0164131039353
 20
33.75544021523316
 30
0.0
 10
-111.0180677202064
 20
33.75544021523316
 30
0.0
 10
-111.0195116512164
 20
33.75544021523316
 30
0.0
 10
-111.0206736036823
 20
33.75544021523316
 30
0.0
 10
-111.021497783155
 20
33.75544021523316
 30
0.0
 10
-111.021999528884
 20
33.75544021523316
 30
0.0
 10
-111.0220602384293
 20
33.75544021523316
 30
0.0
 10
-111.0220899164984
 20
33.75544021523316
 30
0.0
  0
SPLINE
  5
28A7
330
A
100
AcDbEntity
  8
001
  6
Continuous
370
    15
100
AcDbSpline
210
0.0
220
0.0
230
1.0
 70
     8
 71
     3
 72
    12
 73
     8
 74
     0
 42
0.0000000001
 43
0.0000000001
 40
0.0
 40
0.0
 40
0.0
 40
0.0
 40
0.2010365178797626
 40
0.4019171099175986
 40
0.6072652059397658
 40
0.8235737634652336
 40
1.0
 40
1.0
 40
1.0
 40
1.0
 10
-110.9978758299099
 20
33.75359792879541
 30
0.0
 10
-110.9978998094702
 20
33.75379972856502
 30
0.0
 10
-110.9979477499921
 20
33.75420317158642
 30
0.0
 10
-110.9982712732669
 20
33.7547387127221
 30
0.0
 10
-110.9987454058453
 20
33.75515338083565
 30
0.0
 10
-110.9993075788366
 20
33.75539962197779
 30
0.0
 10
-110.9997016137087
 20
33.75542763229987
 30
0.0
 10
-110.9998786239726
 20
33.75544021523316
 30
0.0
  0
LINE
  5
28A8
330
A
100
AcDbEntity
  8
001
  6
Continuous
370
    15
100
AcDbLine
 10
-110.9918033948474
 20
33.77981519943784
 30
0.0
 11
-111.0293033940094
 21
33.77981519943784
 31
0.0
  0
CIRCLE
  5
28A9
330
A
100
AcDbEntity
  8
001
  6
Continuous
370
    15
100
AcDbCircle
 10
-111.0105533944284
 20
33.72169020802108
 30
0.0
 40
0.0024375000000001
  0
SPLINE
  5
28AA
330
A
100
AcDbEntity
  8
001
  6
Continuous
370
    15
100
AcDbSpline
210
0.0
220
0.0
230
1.0
 70
     8
 71
     3
 72
     9
 73
     5
 74
     0
 42
0.0000000001
 43
0.0000000001
 40
0.0
 40
0.0
 40
0.0
 40
0.0
 40
0.3772927922927987
 40
1.0
 40
1.0
 40
1.0
 40
1.0
 10
-111.0148169565787
 20
33.77319021767695
 30
0.0
 10
-111.0148588098525
 20
33.77318908582148
 30
0.0
 10
-111.0149697403411
 20
33.77318608588222
 30
0.0
 10
-111.015085667123
 20
33.77318862063911
 30
0.0
 10
-111.0151578555656
 20
33.7731901990505
 30
0.0
  0
SPLINE
  5
28AB
330
A
100
AcDbEntity
  8
001
  6
Continuous
370
    15
100
AcDbSpline
210
0.0
220
0.0
230
1.0
 70
     8
 71
     3
 72
     9
 73
     5
 74
     0
 42
0.0000000001
 43
0.0000000001
 40
0.0
 40
0.0
 40
0.0
 40
0.0
 40
0.3772902477051674
 40
1.0
 40
1.0
 40
1.0
 40
1.0
 10
-111.0059489335822
 20
33.7731901990505
 30
0.0
 10
-111.0059921588097
 20
33.7731890738683
 30
0.0
 10
-111.0061067263813
 20
33.77318609159617
 30
0.0
 10
-111.006219565788
 20
33.77318863430645
 30
0.0
 10
-111.0062898319871
 20
33.77319021767695
 30
0.0
  0
SPLINE
  5
28AC
330
A
100
AcDbEntity
  8
001
  6
Continuous
370
    15
100
AcDbSpline
210
0.0
220
0.0
230
1.0
 70
    24
 71
     3
 72
     9
 73
     5
 74
     0
 42
0.0000000001
 43
0.0000000001
 40
0.0
 40
0.0
 40
0.0
 40
0.0
 40
0.4999999845559421
 40
1.0
 40
1.0
 40
1.0
 40
1.0
 10
-111.0150300612282
 20
33.77256520709712
 30
0.0
 10
-111.0163524076071
 20
33.77256520709712
 30
0.0
 10
-111.0189971004466
 20
33.77256520709712
 30
0.0
 10
-111.0213511872329
 20
33.77256520709712
 30
0.0
 10
-111.0225282306624
 20
33.77256520709712
 30
0.0
  0
SPLINE
  5
28AD
330
A
100
AcDbEntity
  8
001
  6
Continuous
370
    15
100
AcDbSpline
210
0.0
220
0.0
230
1.0
 70
    24
 71
     3
 72
     9
 73
     5
 74
     0
 42
0.0000000001
 43
0.0000000001
 40
0.0
 40
0.0
 40
0.0
 40
0.0
 40
0.500000015444058
 40
1.0
 40
1.0
 40
1.0
 40
1.0
 10
-110.9985785581944
 20
33.77256520709712
 30
0.0
 10
-110.9997556016239
 20
33.77256520709712
 30
0.0
 10
-111.0021096884102
 20
33.77256520709712
 30
0.0
 10
-111.0047543812497
 20
33.77256520709712
 30
0.0
 10
-111.0060767276287
 20
33.77256520709712
 30
0.0
  0
LINE
  5
28AE
330
A
100
AcDbEntity
  8
001
  6
Continuous
370
    15
100
AcDbLine
 10
-111.0059489335821
 20
33.77319019905058
 30
0.0
 11
-110.9982360433629
 21
33.77319019905058
 31
0.0
  0
LINE
  5
28AF
330
A
100
AcDbEntity
  8
001
  6
Continuous
370
    15
100
AcDbLine
 10
-111.0228707466581
 20
33.77319019905058
 30
0.0
 11
-111.0151578555656
 21
33.77319019905058
 31
0.0
  0
SPLINE
  5
28B0
330
A
100
AcDbEntity
  8
001
  6
Continuous
370
    15
100
AcDbSpline
210
0.0
220
0.0
230
1.0
 70
    24
 71
     3
 72
    11
 73
     7
 74
     0
 42
0.0000000001
 43
0.0000000001
 40
0.0
 40
0.0
 40
0.0
 40
0.0
 40
0.2480976486606374
 40
0.4999999999999833
 40
0.7519023513393627
 40
1.0
 40
1.0
 40
1.0
 40
1.0
 10
-111.0060767276287
 20
33.77256520709712
 30
0.0
 10
-111.0068000200723
 20
33.77256520709712
 30
0.0
 10
-111.0082576970144
 20
33.77256520709712
 30
0.0
 10
-111.0105533944284
 20
33.77256520709712
 30
0.0
 10
-111.0128490918425
 20
33.77256520709712
 30
0.0
 10
-111.0143067687845
 20
33.77256520709712
 30
0.0
 10
-111.0150300612282
 20
33.77256520709712
 30
0.0
  0
LINE
  5
28B1
330
A
100
AcDbEntity
  8
001
  6
Continuous
370
    15
100
AcDbLine
 10
-111.0062898319871
 20
33.77319019905058
 30
0.0
 11
-111.0148169568696
 21
33.77319019905058
 31
0.0
  0
SPLINE
  5
28B2
330
A
100
AcDbEntity
  8
001
  6
Continuous
370
    15
100
AcDbSpline
210
0.0
220
0.0
230
1.0
 70
    24
 71
     3
 72
     9
 73
     5
 74
     0
 42
0.0000000001
 43
0.0000000001
 40
0.0
 40
0.0
 40
0.0
 40
0.0
 40
0.5000004398349552
 40
1.0
 40
1.0
 40
1.0
 40
1.0
 10
-111.0216872836304
 20
33.77881520113666
 30
0.0
 10
-111.0206482043258
 20
33.77881520113666
 30
0.0
 10
-111.0185700475445
 20
33.77881520113666
 30
0.0
 10
-111.0162562268872
 20
33.77881520113666
 30
0.0
 10
-111.0150993175762
 20
33.77881520113666
 30
0.0
  0
SPLINE
  5
28B3
330
A
100
AcDbEntity
  8
001
  6
Continuous
370
    15
100
AcDbSpline
210
0.0
220
0.0
230
1.0
 70
    24
 71
     3
 72
     9
 73
     5
 74
     0
 42
0.0000000001
 43
0.0000000001
 40
0.0
 40
0.0
 40
0.0
 40
0.0
 40
0.4999998858128197
 40
1.0
 40
1.0
 40
1.0
 40
1.0
 10
-111.0060074712806
 20
33.77881520113666
 30
0.0
 10
-111.0048505450333
 20
33.77881520113666
 30
0.0
 10
-111.0025366920104
 20
33.77881520113666
 30
0.0
 10
-111.0004585265125
 20
33.77881520113666
 30
0.0
 10
-110.9994194435263
 20
33.77881520113666
 30
0.0
  0
SPLINE
  5
28B4
330
A
100
AcDbEntity
  8
001
  6
Continuous
370
    15
100
AcDbSpline
210
0.0
220
0.0
230
1.0
 70
    24
 71
     3
 72
    11
 73
     7
 74
     0
 42
0.0000000001
 43
0.0000000001
 40
0.0
 40
0.0
 40
0.0
 40
0.0
 40
0.2483348072946149
 40
0.5000000000000315
 40
0.751665192705385
 40
1.0
 40
1.0
 40
1.0
 40
1.0
 10
-111.0150993175762
 20
33.77881520113666
 30
0.0
 10
-111.0143619356398
 20
33.77881520113666
 30
0.0
 10
-111.0128772828348
 20
33.77881520113666
 30
0.0
 10
-111.0105533944284
 20
33.77881520113666
 30
0.0
 10
-111.008229506022
 20
33.77881520113666
 30
0.0
 10
-111.006744853217
 20
33.77881520113666
 30
0.0
 10
-111.0060074712806
 20
33.77881520113666
 30
0.0
  0
SPLINE
  5
28B5
330
A
100
AcDbEntity
  8
001
  6
Continuous
370
    15
100
AcDbSpline
210
0.0
220
0.0
230
1.0
 70
    24
 71
     3
 72
    11
 73
     7
 74
     0
 42
0.0000000001
 43
0.0000000001
 40
0.0
 40
0.0
 40
0.0
 40
0.0
 40
0.2483343280876514
 40
0.5000001431807667
 40
0.751665434327893
 40
1.0
 40
1.0
 40
1.0
 40
1.0
 10
-110.9994194435263
 20
33.77881520113666
 30
0.0
 10
-110.9990475880371
 20
33.77881520113666
 30
0.0
 10
-110.9982988884947
 20
33.77881520113666
 30
0.0
 10
-110.9967722585274
 20
33.77881520113666
 30
0.0
 10
-110.9950124193558
 20
33.77881520113666
 30
0.0
 10
-110.993661498596
 20
33.77881520113666
 30
0.0
 10
-110.9929905377635
 20
33.77881520113666
 30
0.0
  0
SPLINE
  5
28B6
330
A
100
AcDbEntity
  8
001
  6
Continuous
370
    15
100
AcDbSpline
210
0.0
220
0.0
230
1.0
 70
     8
 71
     3
 72
     9
 73
     5
 74
     0
 42
0.0000000001
 43
0.0000000001
 40
0.0
 40
0.0
 40
0.0
 40
0.0
 40
0.3772820371123971
 40
1.0
 40
1.0
 40
1.0
 40
1.0
 10
-110.9980121254762
 20
33.77319021767695
 30
0.0
 10
-110.9980327596577
 20
33.77318908583348
 30
0.0
 10
-110.9980874513193
 20
33.77318608584052
 30
0.0
 10
-110.9981790211712
 20
33.7731886206063
 30
0.0
 10
-110.9982360433628
 20
33.7731901990505
 30
0.0
  0
SPLINE
  5
28B7
330
A
100
AcDbEntity
  8
001
  6
Continuous
370
    15
100
AcDbSpline
210
0.0
220
0.0
230
1.0
 70
     8
 71
     3
 72
     9
 73
     5
 74
     0
 42
0.0000000001
 43
0.0000000001
 40
0.0
 40
0.0
 40
0.0
 40
0.0
 40
0.3772538613062097
 40
1.0
 40
1.0
 40
1.0
 40
1.0
 10
-111.022870745494
 20
33.7731901990505
 30
0.0
 10
-111.0229059957176
 20
33.77318907390897
 30
0.0
 10
-111.0229994347176
 20
33.77318609145699
 30
0.0
 10
-111.023058124822
 20
33.77318863419603
 30
0.0
 10
-111.023094673858
 20
33.77319021767695
 30
0.0
  0
SPLINE
  5
28B8
330
A
100
AcDbEntity
  8
001
  6
Continuous
370
    15
100
AcDbSpline
210
0.0
220
0.0
230
1.0
 70
    24
 71
     3
 72
    11
 73
     7
 74
     0
 42
0.0000000001
 43
0.0000000001
 40
0.0
 40
0.0
 40
0.0
 40
0.0
 40
0.2480969667402707
 40
0.5000002149855244
 40
0.751902353272064
 40
1.0
 40
1.0
 40
1.0
 40
1.0
 10
-111.0225282306624
 20
33.77256520709712
 30
0.0
 10
-111.0228823221191
 20
33.77256520709712
 30
0.0
 10
-111.023595937472
 20
33.77256520709712
 30
0.0
 10
-111.0250958693073
 20
33.77256520709712
 30
0.0
 10
-111.0268425404363
 20
33.77256520709712
 30
0.0
 10
-111.0281903938932
 20
33.77256520709712
 30
0.0
 10
-111.0288591927224
 20
33.77256520709712
 30
0.0
  0
SPLINE
  5
28B9
330
A
100
AcDbEntity
  8
001
  6
Continuous
370
    15
100
AcDbSpline
210
0.0
220
0.0
230
1.0
 70
    24
 71
     3
 72
    11
 73
     7
 74
     0
 42
0.0000000001
 43
0.0000000001
 40
0.0
 40
0.0
 40
0.0
 40
0.0
 40
0.248097646727936
 40
0.4999997850144756
 40
0.7519030332597292
 40
1.0
 40
1.0
 40
1.0
 40
1.0
 10
-110.9922475961344
 20
33.77256520709712
 30
0.0
 10
-110.9929163949636
 20
33.77256520709712
 30
0.0
 10
-110.9942642484205
 20
33.77256520709712
 30
0.0
 10
-110.9960109195494
 20
33.77256520709712
 30
0.0
 10
-110.9975108513848
 20
33.77256520709712
 30
0.0
 10
-110.9982244667377
 20
33.77256520709712
 30
0.0
 10
-110.9985785581944
 20
33.77256520709712
 30
0.0
  0
LINE
  5
28BA
330
A
100
AcDbEntity
  8
001
  6
Continuous
370
    15
100
AcDbLine
 10
-110.9919825382371
 20
33.77319019905058
 30
0.0
 11
-110.9980121266404
 21
33.77319019905058
 31
0.0
  0
LINE
  5
28BB
330
A
100
AcDbEntity
  8
001
  6
Continuous
370
    15
100
AcDbLine
 10
-111.0230946738579
 20
33.77319019905058
 30
0.0
 11
-111.0291242273366
 21
33.77319019905058
 31
0.0
  0
SPLINE
  5
28BC
330
A
100
AcDbEntity
  8
001
  6
Continuous
370
    15
100
AcDbSpline
210
0.0
220
0.0
230
1.0
 70
    24
 71
     3
 72
    11
 73
     7
 74
     0
 42
0.0000000001
 43
0.0000000001
 40
0.0
 40
0.0
 40
0.0
 40
0.0
 40
0.2483346532960611
 40
0.5000008970100653
 40
0.7516655845546051
 40
1.0
 40
1.0
 40
1.0
 40
1.0
 10
-111.0281162510933
 20
33.77881520113666
 30
0.0
 10
-111.0274452802324
 20
33.77881520113666
 30
0.0
 10
-111.0260943369473
 20
33.77881520113666
 30
0.0
 10
-111.0243344888865
 20
33.77881520113666
 30
0.0
 10
-111.0228078327369
 20
33.77881520113666
 30
0.0
 10
-111.0220591377576
 20
33.77881520113666
 30
0.0
 10
-111.0216872836304
 20
33.77881520113666
 30
0.0
  0
LINE
  5
28BD
330
A
100
AcDbEntity
  8
001
  6
Continuous
370
    15
100
AcDbLine
 10
-111.0030533943632
 20
33.76856521389209
 30
0.0
 11
-111.0180533944936
 21
33.76856521389209
 31
0.0
  0
SPLINE
  5
28BE
330
A
100
AcDbEntity
  8
001
  6
Continuous
370
    15
100
AcDbSpline
210
0.0
220
0.0
230
1.0
 70
     8
 71
     3
 72
     9
 73
     5
 74
     0
 42
0.0000000001
 43
0.0000000001
 40
0.0
 40
0.0
 40
0.0
 40
0.0
 40
0.3772669362637983
 40
1.0
 40
1.0
 40
1.0
 40
1.0
 10
-111.0291242273366
 20
33.77319021767695
 30
0.0
 10
-111.0291627840564
 20
33.77318908585034
 30
0.0
 10
-111.0292649841595
 20
33.77318608578195
 30
0.0
 10
-111.0293373635073
 20
33.77318862056024
 30
0.0
 10
-111.0293824365204
 20
33.7731901990505
 30
0.0
  0
SPLINE
  5
28BF
330
A
100
AcDbEntity
  8
001
  6
Continuous
370
    15
100
AcDbSpline
210
0.0
220
0.0
230
1.0
 70
     8
 71
     3
 72
     9
 73
     5
 74
     0
 42
0.0000000001
 43
0.0000000001
 40
0.0
 40
0.0
 40
0.0
 40
0.0
 40
0.3773349515327164
 40
1.0
 40
1.0
 40
1.0
 40
1.0
 10
-110.9917243674704
 20
33.7731901990505
 30
0.0
 10
-110.9917502486385
 20
33.77318907381833
 30
0.0
 10
-110.9918188380125
 20
33.77318609176709
 30
0.0
 10
-110.9919197215712
 20
33.77318863444209
 30
0.0
 10
-110.9919825382372
 20
33.77319021767695
 30
0.0
  0
SPLINE
  5
28C0
330
A
100
AcDbEntity
  8
001
  6
Continuous
370
    15
100
AcDbSpline
210
0.0
220
0.0
230
1.0
 70
     8
 71
     3
 72
    11
 73
     7
 74
     0
 42
0.0000000001
 43
0.0000000001
 40
0.0
 40
0.0
 40
0.0
 40
0.0
 40
0.2500003498451883
 40
0.5000018821058236
 40
0.7500138996506973
 40
1.0
 40
1.0
 40
1.0
 40
1.0
 10
-110.9891417529275
 20
33.77256520709712
 30
0.0
 10
-110.9890633687544
 20
33.77257417865578
 30
0.0
 10
-110.9889066000373
 20
33.77259212181555
 30
0.0
 10
-110.9887072801494
 20
33.77273057759747
 30
0.0
 10
-110.9885648841427
 20
33.77292925198841
 30
0.0
 10
-110.9885418478789
 20
33.77308867840127
 30
0.0
 10
-110.9885303303441
 20
33.7731683874758
 30
0.0
  0
SPLINE
  5
28C1
330
A
100
AcDbEntity
  8
001
  6
Continuous
370
    15
100
AcDbSpline
210
0.0
220
0.0
230
1.0
 70
    24
 71
     3
 72
     9
 73
     5
 74
     0
 42
0.0000000001
 43
0.0000000001
 40
0.0
 40
0.0
 40
0.0
 40
0.0
 40
0.5000012183492331
 40
1.0
 40
1.0
 40
1.0
 40
1.0
 10
-110.9891417529275
 20
33.77256520709712
 30
0.0
 10
-110.9894839956928
 20
33.77256520709712
 30
0.0
 10
-110.9901684795555
 20
33.77256520709712
 30
0.0
 10
-110.9915545584006
 20
33.77256520709712
 30
0.0
 10
-110.9922475961344
 20
33.77256520709712
 30
0.0
  0
SPLINE
  5
28C2
330
A
100
AcDbEntity
  8
001
  6
Continuous
370
    15
100
AcDbSpline
210
0.0
220
0.0
230
1.0
 70
     8
 71
     3
 72
    11
 73
     7
 74
     0
 42
0.0000000001
 43
0.0000000001
 40
0.0
 40
0.0
 40
0.0
 40
0.0
 40
0.2499866096417654
 40
0.4999979640858573
 40
0.7500006313581911
 40
1.0
 40
1.0
 40
1.0
 40
1.0
 10
-111.0325764422146
 20
33.7731683874758
 30
0.0
 10
-111.0325649262729
 20
33.77308867850639
 30
0.0
 10
-111.0325418932497
 20
33.77292925267765
 30
0.0
 10
-111.0323995016418
 20
33.77273057675954
 30
0.0
 10
-111.0322001845541
 20
33.77259212235032
 30
0.0
 10
-111.0320434184595
 20
33.77257417880873
 30
0.0
 10
-111.0319650359293
 20
33.77256520709712
 30
0.0
  0
SPLINE
  5
28C3
330
A
100
AcDbEntity
  8
001
  6
Continuous
370
    15
100
AcDbSpline
210
0.0
220
0.0
230
1.0
 70
    24
 71
     3
 72
     9
 73
     5
 74
     0
 42
0.0000000001
 43
0.0000000001
 40
0.0
 40
0.0
 40
0.0
 40
0.0
 40
0.4999987816507669
 40
1.0
 40
1.0
 40
1.0
 40
1.0
 10
-111.0288591927224
 20
33.77256520709712
 30
0.0
 10
-111.0295522304562
 20
33.77256520709712
 30
0.0
 10
-111.0309383093013
 20
33.77256520709712
 30
0.0
 10
-111.031622793164
 20
33.77256520709712
 30
0.0
 10
-111.0319650359293
 20
33.77256520709712
 30
0.0
  0
LINE
  5
28C4
330
A
100
AcDbEntity
  8
001
  6
Continuous
370
    15
100
AcDbLine
 10
-110.9917243674704
 20
33.77319019905058
 30
0.0
 11
-110.9885295620029
 21
33.77319019905058
 31
0.0
  0
LINE
  5
28C5
330
A
100
AcDbEntity
  8
001
  6
Continuous
370
    15
100
AcDbLine
 10
-111.0325772221974
 20
33.77319019905058
 30
0.0
 11
-111.0293824376846
 21
33.77319019905058
 31
0.0
  0
SPLINE
  5
28C6
330
A
100
AcDbEntity
  8
001
  6
Continuous
370
    15
100
AcDbSpline
210
0.0
220
0.0
230
1.0
 70
     8
 71
     3
 72
    12
 73
     8
 74
     0
 42
0.0000000001
 43
0.0000000001
 40
0.0
 40
0.0
 40
0.0
 40
0.0
 40
0.1459995336577692
 40
0.27900101803641
 40
0.5050837294268062
 40
0.7587962727189126
 40
1.0
 40
1.0
 40
1.0
 40
1.0
 10
-111.0308451019069
 20
33.77881520113666
 30
0.0
 10
-111.0309622880505
 20
33.77880777612315
 30
0.0
 10
-111.0311862274875
 20
33.77879358713039
 30
0.0
 10
-111.0315731423259
 20
33.77866137045151
 30
0.0
 10
-111.0319869285473
 20
33.77838431413546
 30
0.0
 10
-111.0323407852872
 20
33.77789816435597
 30
0.0
 10
-111.0323993495637
 20
33.77750086820128
 30
0.0
 10
-111.0324278916074
 20
33.77730724087674
 30
0.0
  0
SPLINE
  5
28C7
330
A
100
AcDbEntity
  8
001
  6
Continuous
370
    15
100
AcDbSpline
210
0.0
220
0.0
230
1.0
 70
    24
 71
     3
 72
     9
 73
     5
 74
     0
 42
0.0000000001
 43
0.0000000001
 40
0.0
 40
0.0
 40
0.0
 40
0.0
 40
0.5000008124907576
 40
1.0
 40
1.0
 40
1.0
 40
1.0
 10
-111.0308451019069
 20
33.77881520113666
 30
0.0
 10
-111.0305325432985
 20
33.77881520113666
 30
0.0
 10
-111.0299074270976
 20
33.77881520113666
 30
0.0
 10
-111.0287133091146
 20
33.77881520113666
 30
0.0
 10
-111.0281162510933
 20
33.77881520113666
 30
0.0
  0
SPLINE
  5
28C8
330
A
100
AcDbEntity
  8
001
  6
Continuous
370
    15
100
AcDbSpline
210
0.0
220
0.0
230
1.0
 70
     8
 71
     3
 72
    12
 73
     8
 74
     0
 42
0.0000000001
 43
0.0000000001
 40
0.0
 40
0.0
 40
0.0
 40
0.0
 40
0.2411876870688598
 40
0.494913371038341
 40
0.7210679885722361
 40
0.8540512156980502
 40
1.0
 40
1.0
 40
1.0
 40
1.0
 10
-110.9886788972495
 20
33.77730724087674
 30
0.0
 10
-110.9887074386169
 20
33.77750085433904
 30
0.0
 10
-110.9887660050575
 20
33.77789814614306
 30
0.0
 10
-110.989119874495
 20
33.77838435431108
 30
0.0
 10
-110.9895337242545
 20
33.77866143628294
 30
0.0
 10
-110.9899206611631
 20
33.77879358538697
 30
0.0
 10
-110.9901445428015
 20
33.77880777601314
 30
0.0
 10
-110.9902616869499
 20
33.77881520113666
 30
0.0
  0
SPLINE
  5
28C9
330
A
100
AcDbEntity
  8
001
  6
Continuous
370
    15
100
AcDbSpline
210
0.0
220
0.0
230
1.0
 70
    24
 71
     3
 72
     9
 73
     5
 74
     0
 42
0.0000000001
 43
0.0000000001
 40
0.0
 40
0.0
 40
0.0
 40
0.0
 40
0.4999991875092424
 40
1.0
 40
1.0
 40
1.0
 40
1.0
 10
-110.9929905377635
 20
33.77881520113666
 30
0.0
 10
-110.9923934797423
 20
33.77881520113666
 30
0.0
 10
-110.9911993617592
 20
33.77881520113666
 30
0.0
 10
-110.9905742455583
 20
33.77881520113666
 30
0.0
 10
-110.9902616869499
 20
33.77881520113666
 30
0.0
  0
SPLINE
  5
28CA
330
A
100
AcDbEntity
  8
001
  6
Continuous
370
    15
100
AcDbSpline
210
0.0
220
0.0
230
1.0
 70
     8
 71
     3
 72
     9
 73
     5
 74
     0
 42
0.0000000001
 43
0.0000000001
 40
0.0
 40
0.0
 40
0.0
 40
0.0
 40
0.0350167298785434
 40
1.0
 40
1.0
 40
1.0
 40
1.0
 10
-110.9885243698796
 20
33.77318775898535
 30
0.0
 10
-110.9885237326823
 20
33.77318770789685
 30
0.0
 10
-110.9885055357432
 20
33.77318624892292
 30
0.0
 10
-110.9885177629515
 20
33.77318825918308
 30
0.0
 10
-110.9885295620029
 20
33.7731901990505
 30
0.0
  0
LINE
  5
28CB
330
A
100
AcDbEntity
  8
001
  6
Continuous
370
    15
100
AcDbLine
 10
-110.9886788972494
 20
33.77730724087683
 30
0.0
 11
-110.9886654815479
 21
33.77730804181409
 31
0.0
  0
SPLINE
  5
28CC
330
A
100
AcDbEntity
  8
001
  6
Continuous
370
    15
100
AcDbSpline
210
0.0
220
0.0
230
1.0
 70
     8
 71
     3
 72
     9
 73
     5
 74
     0
 42
0.0000000001
 43
0.0000000001
 40
0.0
 40
0.0
 40
0.0
 40
0.0
 40
0.5000029642797493
 40
1.0
 40
1.0
 40
1.0
 40
1.0
 10
-111.0324045503353
 20
33.77730724087674
 30
0.0
 10
-111.0324202573197
 20
33.77730766928682
 30
0.0
 10
-111.0324516711024
 20
33.7773085261019
 30
0.0
 10
-111.0324358180744
 20
33.77730766928343
 30
0.0
 10
-111.0324278916074
 20
33.77730724087674
 30
0.0
  0
SPLINE
  5
28CD
330
A
100
AcDbEntity
  8
001
  6
Continuous
370
    15
100
AcDbSpline
210
0.0
220
0.0
230
1.0
 70
     8
 71
     3
 72
     9
 73
     5
 74
     0
 42
0.0000000001
 43
0.0000000001
 40
0.0
 40
0.0
 40
0.0
 40
0.0
 40
0.3773034626988583
 40
1.0
 40
1.0
 40
1.0
 40
1.0
 10
-111.032577219869
 20
33.7731901990505
 30
0.0
 10
-111.0325838454429
 20
33.77318907385353
 30
0.0
 10
-111.0326014057745
 20
33.7731860916467
 30
0.0
 10
-111.0325715686549
 20
33.77318863434655
 30
0.0
 10
-111.0325529891839
 20
33.77319021767695
 30
0.0
  0
ARC
  5
28CE
330
A
100
AcDbEntity
  8
001
  6
Continuous
370
    15
100
AcDbCircle
 10
-111.0325711464646
 20
33.77297227850834
 30
0.0
 40
0.0001961804580366
100
AcDbArc
 50
91.54684612160002
 51
95.40549674959983
  0
ARC
  5
28CF
330
A
100
AcDbEntity
  8
001
  6
Continuous
370
    15
100
AcDbCircle
 10
-110.9885355744029
 20
33.77297350430508
 30
0.0
 40
0.0001949537134285
100
AcDbArc
 50
84.58045865489987
 51
88.45861522740021
  0
ARC
  5
28D0
330
A
100
AcDbEntity
  8
001
  6
Continuous
370
    15
100
AcDbCircle
 10
-111.0325712144539
 20
33.77297350430508
 30
0.0
 40
0.0001949537134285
100
AcDbArc
 50
91.54138477259978
 51
95.41954134510014
  0
SPLINE
  5
28D1
330
A
100
AcDbEntity
  8
001
  6
Continuous
370
    15
100
AcDbSpline
210
0.0
220
0.0
230
1.0
 70
    24
 71
     3
 72
    23
 73
    19
 74
     0
 42
0.0000000001
 43
0.0000000001
 40
0.0
 40
0.0
 40
0.0
 40
0.0
 40
0.0582581833175597
 40
0.1200056623099925
 40
0.1843205390657917
 40
0.250000028427353
 40
0.3156796409166845
 40
0.3799942913491414
 40
0.4417420108395837
 40
0.5000000000000001
 40
0.5582579891604166
 40
0.6200057086508588
 40
0.6843203590833157
 40
0.7499999715726472
 40
0.8156794609342085
 40
0.8799943376900076
 40
0.9417418166824404
 40
1.0
 40
1.0
 40
1.0
 40
1.0
 10
-110.9950533939832
 20
33.7379402170213
 30
0.0
 10
-110.9951036792385
 20
33.7379402170213
 30
0.0
 10
-110.9952072615169
 20
33.7379402170213
 30
0.0
 10
-110.9960696356165
 20
33.7379402170213
 30
0.0
 10
-110.9974995914455
 20
33.7379402170213
 30
0.0
 10
-110.9995156984465
 20
33.7379402170213
 30
0.0
 10
-111.001993830874
 20
33.7379402170213
 30
0.0
 10
-111.0047718869404
 20
33.7379402170213
 30
0.0
 10
-111.0076606452385
 20
33.7379402170213
 30
0.0
 10
-111.0105533944284
 20
33.7379402170213
 30
0.0
 10
-111.0134461436184
 20
33.7379402170213
 30
0.0
 10
-111.0163349019164
 20
33.7379402170213
 30
0.0
 10
-111.0191129579829
 20
33.7379402170213
 30
0.0
 10
-111.0215910904104
 20
33.7379402170213
 30
0.0
 10
-111.0236071974114
 20
33.7379402170213
 30
0.0
 10
-111.0250371532403
 20
33.7379402170213
 30
0.0
 10
-111.0258995273399
 20
33.7379402170213
 30
0.0
 10
-111.0260031096183
 20
33.7379402170213
 30
0.0
 10
-111.0260533948736
 20
33.7379402170213
 30
0.0
  0
SPLINE
  5
28D2
330
A
100
AcDbEntity
  8
001
  6
Continuous
370
    15
100
AcDbSpline
210
0.0
220
0.0
230
1.0
 70
    11
 71
     3
 72
    27
 73
    23
 74
     0
 42
0.0000000001
 43
0.0000000001
 40
0.0
 40
0.0
 40
0.0
 40
0.0
 40
0.0535472110091668
 40
0.1070905288419708
 40
0.1607615774053781
 40
0.214515044586883
 40
0.2681308522306211
 40
0.3216037058973843
 40
0.3751485287298304
 40
0.4288704979114197
 40
0.4825988965280105
 40
0.499999607581463
 40
0.5535486966025295
 40
0.6070903480593556
 40
0.660761396622763
 40
0.7145148638042678
 40
0.7681306714480059
 40
0.8216029946323084
 40
0.8751489211483672
 40
0.9288708903299564
 40
0.9825992889465473
 40
1.0
 40
1.0
 40
1.0
 40
1.0
 10
-111.0121158943935
 20
33.71106520912368
 30
0.0
 10
-111.0120986852846
 20
33.71124053733596
 30
0.0
 10
-111.0120642683182
 20
33.7115911810132
 30
0.0
 10
-111.0117960553208
 20
33.71205810691152
 30
0.0
 10
-111.0114005576931
 20
33.71241396682682
 30
0.0
 10
-111.0109056860316
 20
33.71261817766987
 30
0.0
 10
-111.0103723790754
 20
33.71264716198106
 30
0.0
 10
-111.0098601045638
 20
33.71249856979888
 30
0.0
 10
-111.0094256132156
 20
33.7121892401949
 30
0.0
 10
-111.0091171499876
 20
33.71175339462515
 30
0.0
 10
-111.0090034877343
 20
33.71135361244308
 30
0.0
 10
-111.0089813494545
 20
33.7109476062523
 30
0.0
 10
-111.0090504451388
 20
33.71053894401227
 30
0.0
 10
-111.0093086088966
 20
33.71007238501743
 30
0.0
 10
-111.0097068043846
 20
33.70971643106691
 30
0.0
 10
-111.0102009450069
 20
33.70951224439529
 30
0.0
 10
-111.0107344670433
 20
33.70948326137971
 30
0.0
 10
-111.0112466057038
 20
33.70963182437799
 30
0.0
 10
-111.0116814626477
 20
33.7099411711642
 30
0.0
 10
-111.0119885522494
 20
33.71037706073086
 30
0.0
 10
-111.0121061983342
 20
33.7107767022296
 30
0.0
 10
-111.0121139886139
 20
33.71100850252403
 30
0.0
 10
-111.0121158943935
 20
33.71106520912368
 30
0.0
  0
SPLINE
  5
28D3
330
A
100
AcDbEntity
  8
001
  6
Continuous
370
    15
100
AcDbSpline
210
0.0
220
0.0
230
1.0
 70
    11
 71
     3
 72
    27
 73
    23
 74
     0
 42
0.0000000001
 43
0.0000000001
 40
0.0
 40
0.0
 40
0.0
 40
0.0
 40
0.053348790224619
 40
0.1066871012521292
 40
0.1603328014914766
 40
0.2141841934181899
 40
0.2677025654707963
 40
0.3208740006596686
 40
0.3742150158065166
 40
0.4279827130798485
 40
0.4817756785169334
 40
0.4999995531008866
 40
0.553349546289009
 40
0.6066867898258332
 40
0.6603333038046939
 40
0.7141842274566148
 40
0.7677025995092209
 40
0.8208736990883428
 40
0.8742154153260811
 40
0.9279831125994132
 40
0.981774907046306
 40
1.0
 40
1.0
 40
1.0
 40
1.0
 10
-111.0081158944945
 20
33.72169020271618
 30
0.0
 10
-111.0081425921688
 20
33.72141751873505
 30
0.0
 10
-111.0081959822732
 20
33.72087220433557
 30
0.0
 10
-111.0086118396103
 20
33.72014547389919
 30
0.0
 10
-111.0092262795572
 20
33.71958963877673
 30
0.0
 10
-111.0099973662472
 20
33.71926899969018
 30
0.0
 10
-111.0108283688869
 20
33.71922176813946
 30
0.0
 10
-111.0116254566548
 20
33.71945010913751
 30
0.0
 10
-111.0123031618178
 20
33.71992749776511
 30
0.0
 10
-111.0127877799257
 20
33.72060369397364
 30
0.0
 10
-111.0129700322287
 20
33.72123126405275
 30
0.0
 10
-111.0130064584585
 20
33.72186858318737
 30
0.0
 10
-111.0128985165359
 20
33.72250864306195
 30
0.0
 10
-111.0124982527922
 20
33.72323481589848
 30
0.0
 10
-111.011879624423
 20
33.72379082276327
 30
0.0
 10
-111.0111096637233
 20
33.72411139263064
 30
0.0
 10
-111.0102783283994
 20
33.72415863502972
 30
0.0
 10
-111.0094814634884
 20
33.72393031818559
 30
0.0
 10
-111.008803161233
 20
33.72345292070546
 30
0.0
 10
-111.0083207725488
 20
33.72277665611715
 30
0.0
 10
-111.0081320243583
 20
33.72214931385123
 30
0.0
 10
-111.0081191520501
 20
33.72178292389849
 30
0.0
 10
-111.0081158944945
 20
33.72169020271618
 30
0.0
  0
LINE
  5
28D4
330
A
100
AcDbEntity
  8
001
  6
Continuous
370
    15
100
AcDbLine
 10
-111.0285533941191
 20
33.70731520152409
 30
0.0
 11
-110.9925533947376
 21
33.70731520152409
 31
0.0
  0
LINE
  5
28D5
330
A
100
AcDbEntity
  8
001
  6
Continuous
370
    15
100
AcDbLine
 10
-111.0279283940166
 20
33.70669020957083
 30
0.0
 11
-110.9931783948401
 21
33.70669020957083
 31
0.0
  0
CIRCLE
  5
28D6
330
A
100
AcDbEntity
  8
001
  6
Continuous
370
    15
100
AcDbCircle
 10
-111.0105533944284
 20
33.52394020802108
 30
0.0
 40
0.075
  0
ARC
  5
28D7
330
A
100
AcDbEntity
  8
001
  6
Continuous
370
    15
100
AcDbCircle
 10
-111.0443177432301
 20
33.47727116046258
 30
0.0
 40
0.0018750000000002
100
AcDbArc
 50
224.9999999999997
 51
45.0
  0
LINE
  5
28D8
330
A
100
AcDbEntity
  8
001
  6
Continuous
370
    15
100
AcDbLine
 10
-111.0432725655686
 20
33.47887763439433
 30
0.0
 11
-111.0429919184959
 21
33.47859698499309
 31
0.0
  0
LINE
  5
28D9
330
A
100
AcDbEntity
  8
001
  6
Continuous
370
    15
100
AcDbLine
 10
-111.0394563851719
 20
33.48213251831708
 30
0.0
 11
-111.0397370322449
 21
33.48241316771833
 31
0.0
  0
ARC
  5
28DA
330
A
100
AcDbEntity
  8
001
  6
Continuous
370
    15
100
AcDbCircle
 10
-111.0381305588946
 20
33.48345834479808
 30
0.0
 40
0.0018750000000003
100
AcDbArc
 50
224.9999999999997
 51
45.0
  0
LINE
  5
28DB
330
A
100
AcDbEntity
  8
001
  6
Continuous
370
    15
100
AcDbLine
 10
-111.0368047328506
 20
33.48478417063833
 30
0.0
 11
-111.0497094318111
 21
33.49768886959859
 31
0.0
  0
ARC
  5
28DC
330
A
100
AcDbEntity
  8
001
  6
Continuous
370
    15
100
AcDbCircle
 10
-111.0510352576514
 20
33.49636304355483
 30
0.0
 40
0.0018750000000002
100
AcDbArc
 50
45.0
 51
224.9999999999997
  0
LINE
  5
28DD
330
A
100
AcDbEntity
  8
001
  6
Continuous
370
    15
100
AcDbLine
 10
-111.0520804347311
 20
33.49475657020458
 30
0.0
 11
-111.0523610841324
 21
33.49503721727759
 31
0.0
  0
LINE
  5
28DE
330
A
100
AcDbEntity
  8
001
  6
Continuous
370
    15
100
AcDbLine
 10
-111.0558966174564
 20
33.49150168395358
 30
0.0
 11
-111.0556159680551
 21
33.49122103688058
 31
0.0
  0
ARC
  5
28DF
330
A
100
AcDbEntity
  8
001
  6
Continuous
370
    15
100
AcDbCircle
 10
-111.0572224419866
 20
33.49017585921933
 30
0.0
 40
0.0018750000000003
100
AcDbArc
 50
45.0
 51
224.9999999999997
  0
LINE
  5
28E0
330
A
100
AcDbEntity
  8
001
  6
Continuous
370
    15
100
AcDbLine
 10
-111.0585482651209
 20
33.48885003396059
 30
0.0
 11
-111.0456435684886
 21
33.47594533732859
 31
0.0
  0
CIRCLE
  5
28E1
330
A
100
AcDbEntity
  8
001
  6
Continuous
370
    15
100
AcDbCircle
 10
-111.0105533944284
 20
33.57612770802109
 30
0.0
 40
0.004375
  0
CIRCLE
  5
28E2
330
A
100
AcDbEntity
  8
001
  6
Continuous
370
    15
100
AcDbCircle
 10
-111.0105533944284
 20
33.47175270802108
 30
0.0
 40
0.004375
  0
CIRCLE
  5
28E3
330
A
100
AcDbEntity
  8
001
  6
Continuous
370
    15
100
AcDbCircle
 10
-111.0522408944284
 20
33.52394020802108
 30
0.0
 40
0.004375
  0
CIRCLE
  5
28E4
330
A
100
AcDbEntity
  8
001
  6
Continuous
370
    15
100
AcDbCircle
 10
-110.9688658944284
 20
33.52394020802108
 30
0.0
 40
0.0043749999999999
  0
LINE
  5
28E9
330
A
100
AcDbEntity
  8
001
  6
Continuous
370
    15
100
AcDbLine
 10
-111.0461738984874
 20
33.48177896498458
 30
0.0
 11
-111.0426383651634
 21
33.48531450063684
 31
0.0
  0
LINE
  5
28EA
330
A
100
AcDbEntity
  8
001
  6
Continuous
370
    15
100
AcDbLine
 10
-111.0461738984874
 20
33.48177896498458
 30
0.0
 11
-111.0446266294299
 21
33.48023169825534
 31
0.0
  0
LINE
  5
28EB
330
A
100
AcDbEntity
  8
001
  6
Continuous
370
    15
100
AcDbLine
 10
-111.0410910961059
 20
33.48376723157933
 30
0.0
 11
-111.0426383651634
 21
33.48531450063684
 31
0.0
  0
LINE
  5
28EC
330
A
100
AcDbEntity
  8
001
  6
Continuous
370
    15
100
AcDbLine
 10
-111.0491791018126
 20
33.49185523728609
 30
0.0
 11
-111.0527146374649
 21
33.48831970396209
 31
0.0
  0
LINE
  5
28ED
330
A
100
AcDbEntity
  8
001
  6
Continuous
370
    15
100
AcDbLine
 10
-111.0542619041939
 20
33.48986697301958
 30
0.0
 11
-111.0527146374649
 21
33.48831970396209
 31
0.0
  0
LINE
  5
28EE
330
A
100
AcDbEntity
  8
001
  6
Continuous
370
    15
100
AcDbLine
 10
-111.0491791018126
 20
33.49185523728609
 30
0.0
 11
-111.0507263708701
 21
33.49340250634358
 31
0.0
  0
LINE
  5
28EF
330
A
100
AcDbEntity
  8
001
  6
Continuous
370
    15
100
AcDbLine
 10
-111.0527146374649
 20
33.48831970396209
 30
0.0
 11
-111.0461738984874
 21
33.48177896498458
 31
0.0
  0
LINE
  5
28F0
330
A
100
AcDbEntity
  8
001
  6
Continuous
370
    15
100
AcDbLine
 10
-111.0426383651634
 20
33.48531450063684
 30
0.0
 11
-111.0491791018126
 21
33.49185523728609
 31
0.0
  0
CIRCLE
  5
28F1
330
A
100
AcDbEntity
  8
001
  6
Continuous
370
    15
100
AcDbCircle
 10
-111.0105533944284
 20
33.71106520802109
 30
0.0
 40
0.0015000000000498
  0
LINE
  5
28F2
330
A
100
AcDbEntity
  8
001
  6
Continuous
370
    15
100
AcDbLine
 10
-111.0114928507234
 20
33.71052735171033
 30
0.0
 11
-111.0114889257806
 21
33.71160986519184
 31
0.0
  0
LINE
  5
28F3
330
A
100
AcDbEntity
  8
001
  6
Continuous
370
    15
100
AcDbLine
 10
-111.0096139381336
 20
33.71160306653708
 30
0.0
 11
-111.0096178630761
 21
33.71052055305558
 31
0.0
  0
LINE
  5
28F4
330
A
100
AcDbEntity
  8
001
  6
Continuous
370
    15
100
AcDbLine
 10
-111.0096178630761
 20
33.71052055305558
 30
0.0
 11
-111.0105573193656
 21
33.70998267701583
 31
0.0
  0
LINE
  5
28F5
330
A
100
AcDbEntity
  8
001
  6
Continuous
370
    15
100
AcDbLine
 10
-111.0114889257806
 20
33.71160986519184
 30
0.0
 11
-111.0105494694911
 21
33.71214774123159
 31
0.0
  0
LINE
  5
28F6
330
A
100
AcDbEntity
  8
001
  6
Continuous
370
    15
100
AcDbLine
 10
-111.0105573193656
 20
33.70998267701583
 30
0.0
 11
-111.0114928507234
 21
33.71052735171033
 31
0.0
  0
LINE
  5
28F7
330
A
100
AcDbEntity
  8
001
  6
Continuous
370
    15
100
AcDbLine
 10
-111.0105494694911
 20
33.71214774123159
 30
0.0
 11
-111.0096139381336
 21
33.71160306653708
 31
0.0
  0
CIRCLE
  5
28F8
330
A
100
AcDbEntity
  8
001
  6
Continuous
370
    15
100
AcDbCircle
 10
-111.0105533944284
 20
33.52394020802108
 30
0.0
 40
0.015625
  0
CIRCLE
  5
28F9
330
A
100
AcDbEntity
  8
001
  6
Continuous
370
    15
100
AcDbCircle
 10
-111.0105533944284
 20
33.52394020802108
 30
0.0
 40
0.01375
  0
SPLINE
  5
28FA
330
A
100
AcDbEntity
  8
001
  6
Continuous
370
    15
100
AcDbSpline
210
0.0
220
0.0
230
1.0
 70
     8
 71
     3
 72
    19
 73
    15
 74
     0
 42
0.0000000001
 43
0.0000000001
 40
0.0
 40
0.0
 40
0.0
 40
0.0
 40
0.0934327954501292
 40
0.1863844133978438
 40
0.2907442341222252
 40
0.3487458012759815
 40
0.4066914926848247
 40
0.5000096577727527
 40
0.5951936664652712
 40
0.6900925387803741
 40
0.7923249443238346
 40
0.8498902526210303
 40
0.9073913917881966
 40
1.0
 40
1.0
 40
1.0
 40
1.0
 10
-111.001178394638
 20
33.6573152119549
 30
0.0
 10
-111.0012627911526
 20
33.65637245856319
 30
0.0
 10
-111.0014311495409
 20
33.6544918069457
 30
0.0
 10
-111.0027169653509
 20
33.65193075538983
 30
0.0
 10
-111.0043801339638
 20
33.65012422736455
 30
0.0
 10
-111.0061781400851
 20
33.64896865376205
 30
0.0
 10
-111.0080830834281
 20
33.64817489844629
 30
0.0
 10
-111.0105726719829
 20
33.6477923977163
 30
0.0
 10
-111.0134329255896
 20
33.64824155572575
 30
0.0
 10
-111.0160237289453
 20
33.64952406739018
 30
0.0
 10
-111.017807635555
 20
33.65122278171922
 30
0.0
 10
-111.0189186901436
 20
33.65298718114809
 30
0.0
 10
-111.0197187047065
 20
33.65486476568199
 30
0.0
 10
-111.0198483876868
 20
33.65638025003873
 30
0.0
 10
-111.0199283942189
 20
33.6573152119549
 30
0.0
  0
LINE
  5
28FB
330
A
100
AcDbEntity
  8
001
  6
Continuous
370
    15
100
AcDbLine
 10
-111.0011783946379
 20
33.68356520927259
 30
0.0
 11
-111.0011783946379
 21
33.65731521195483
 31
0.0
  0
SPLINE
  5
28FC
330
A
100
AcDbEntity
  8
001
  6
Continuous
370
    15
100
AcDbSpline
210
0.0
220
0.0
230
1.0
 70
     8
 71
     3
 72
    19
 73
    15
 74
     0
 42
0.0000000001
 43
0.0000000001
 40
0.0
 40
0.0
 40
0.0
 40
0.0
 40
0.0934325190734227
 40
0.1863844334041461
 40
0.2907440697559427
 40
0.3487458145137292
 40
0.4066915229146905
 40
0.5000096693758321
 40
0.5951937059803163
 40
0.6900924742536044
 40
0.7923249097759136
 40
0.849890234953683
 40
0.9073916684952433
 40
1.0
 40
1.0
 40
1.0
 40
1.0
 10
-111.0199283942189
 20
33.68356520927269
 30
0.0
 10
-111.0198439966667
 20
33.68450795889884
 30
0.0
 10
-111.0196756356925
 20
33.68638860876952
 30
0.0
 10
-111.0183898297629
 20
33.68894966590561
 30
0.0
 10
-111.0167266484128
 20
33.69075618124298
 30
0.0
 10
-111.0149286515875
 20
33.69191176883558
 30
0.0
 10
-111.0130237055561
 20
33.69270552342498
 30
0.0
 10
-111.0105341157493
 20
33.69308801162201
 30
0.0
 10
-111.007673865935
 20
33.69263885456707
 30
0.0
 10
-111.0050830573475
 20
33.69135635596569
 30
0.0
 10
-111.0032991539671
 20
33.6896576388225
 30
0.0
 10
-111.002188096373
 20
33.68789323841985
 30
0.0
 10
-111.0013880876739
 20
33.68601565060176
 30
0.0
 10
-111.0012584023608
 20
33.68450016750679
 30
0.0
 10
-111.001178394638
 20
33.68356520927269
 30
0.0
  0
LINE
  5
28FD
330
A
100
AcDbEntity
  8
001
  6
Continuous
370
    15
100
AcDbLine
 10
-111.0199283942189
 20
33.65731521195483
 30
0.0
 11
-111.0199283942189
 21
33.68356520927259
 31
0.0
  0
LINE
  5
28FE
330
A
100
AcDbEntity
  8
001
  6
PHANTOM
370
     0
100
AcDbLine
 10
-110.9978758299099
 20
33.75359792879534
 30
0.0
 11
-111.0239646315881
 21
33.75359792879534
 31
0.0
  0
LINE
  5
28FF
330
A
100
AcDbEntity
  8
001
  6
PHANTOM
370
     0
100
AcDbLine
 10
-111.0150404079309
 20
33.77730804181409
 30
0.0
 11
-111.0148291903739
 21
33.77730724087683
 31
0.0
  0
LINE
  5
2900
330
A
100
AcDbEntity
  8
001
  6
PHANTOM
370
     0
100
AcDbLine
 10
-111.0148169568696
 20
33.77319019905058
 30
0.0
 11
-111.0148291903739
 21
33.77730724087683
 31
0.0
  0
LINE
  5
2901
330
A
100
AcDbEntity
  8
001
  6
PHANTOM
370
     0
100
AcDbLine
 10
-111.0151578555656
 20
33.77319019905058
 30
0.0
 11
-111.0151693885404
 21
33.77730724087683
 31
0.0
  0
LINE
  5
2902
330
A
100
AcDbEntity
  8
001
  6
PHANTOM
370
     0
100
AcDbLine
 10
-111.0151693885404
 20
33.77730724087683
 30
0.0
 11
-111.0150404079309
 21
33.77730804181409
 31
0.0
  0
LINE
  5
2903
330
A
100
AcDbEntity
  8
001
  6
PHANTOM
370
     0
100
AcDbLine
 10
-111.0148170470916
 20
33.77316838747583
 30
0.0
 11
-111.0148169568696
 21
33.77319019905058
 31
0.0
  0
ARC
  5
2904
330
A
100
AcDbEntity
  8
001
  6
PHANTOM
370
     0
100
AcDbCircle
 10
-111.0149874142211
 20
33.79019626870859
 30
0.0
 40
0.0170287334889936
100
AcDbArc
 50
269.4267641601999
 51
270.5732358398
  0
LINE
  5
2905
330
A
100
AcDbEntity
  8
001
  6
PHANTOM
370
     0
100
AcDbLine
 10
-111.0151577813509
 20
33.77316838747583
 30
0.0
 11
-111.0151578555656
 21
33.77319019905058
 31
0.0
  0
LINE
  5
2906
330
A
100
AcDbEntity
  8
001
  6
PHANTOM
370
     0
100
AcDbLine
 10
-111.0060663809259
 20
33.77730804181409
 30
0.0
 11
-111.0059374003164
 21
33.77730724087683
 31
0.0
  0
LINE
  5
2907
330
A
100
AcDbEntity
  8
001
  6
PHANTOM
370
     0
100
AcDbLine
 10
-111.0059374003164
 20
33.77730724087683
 30
0.0
 11
-111.0059489335821
 21
33.77319019905058
 31
0.0
  0
LINE
  5
2908
330
A
100
AcDbEntity
  8
001
  6
PHANTOM
370
     0
100
AcDbLine
 10
-111.0062775984829
 20
33.77730724087683
 30
0.0
 11
-111.0062898319871
 21
33.77319019905058
 31
0.0
  0
LINE
  5
2909
330
A
100
AcDbEntity
  8
001
  6
PHANTOM
370
     0
100
AcDbLine
 10
-111.0062775984829
 20
33.77730724087683
 30
0.0
 11
-111.0060663809259
 21
33.77730804181409
 31
0.0
  0
LINE
  5
290A
330
A
100
AcDbEntity
  8
001
  6
PHANTOM
370
     0
100
AcDbLine
 10
-111.0059489335821
 20
33.77319019905058
 30
0.0
 11
-111.0059489257241
 21
33.77316838747583
 31
0.0
  0
ARC
  5
290B
330
A
100
AcDbEntity
  8
001
  6
PHANTOM
370
     0
100
AcDbCircle
 10
-111.0061192973649
 20
33.79019717085383
 30
0.0
 40
0.0170296356341866
100
AcDbArc
 50
269.4267793500997
 51
270.5732206499003
  0
LINE
  5
290C
330
A
100
AcDbEntity
  8
001
  6
PHANTOM
370
     0
100
AcDbLine
 10
-111.0062898319871
 20
33.77319019905058
 30
0.0
 11
-111.0062896690056
 21
33.77316838747583
 31
0.0
  0
SPLINE
  5
290D
330
A
100
AcDbEntity
  8
001
  6
PHANTOM
370
     0
100
AcDbSpline
210
0.0
220
0.0
230
1.0
 70
     8
 71
     3
 72
    11
 73
     7
 74
     0
 42
0.0000000001
 43
0.0000000001
 40
0.0
 40
0.0
 40
0.0
 40
0.0
 40
0.2500022049813346
 40
0.5000014610854055
 40
0.7500113706376643
 40
1.0
 40
1.0
 40
1.0
 40
1.0
 10
-111.0150300612282
 20
33.77256520709712
 30
0.0
 10
-111.0150464400778
 20
33.77257417846259
 30
0.0
 10
-111.0150791975838
 20
33.7725921210877
 30
0.0
 10
-111.0151208432961
 20
33.77273057735175
 30
0.0
 10
-111.0151505860863
 20
33.77292925442952
 30
0.0
 10
-111.0151553829974
 20
33.77308867872209
 30
0.0
 10
-111.0151577813508
 20
33.7731683874758
 30
0.0
  0
SPLINE
  5
290E
330
A
100
AcDbEntity
  8
001
  6
PHANTOM
370
     0
100
AcDbSpline
210
0.0
220
0.0
230
1.0
 70
     8
 71
     3
 72
    11
 73
     7
 74
     0
 42
0.0000000001
 43
0.0000000001
 40
0.0
 40
0.0
 40
0.0
 40
0.0
 40
0.2499867199528925
 40
0.500007176046079
 40
0.7500022584336992
 40
1.0
 40
1.0
 40
1.0
 40
1.0
 10
-111.0148170470916
 20
33.7731683874758
 30
0.0
 10
-111.0148210578049
 20
33.77308867766543
 30
0.0
 10
-111.0148290797726
 20
33.77292924728772
 30
0.0
 10
-111.0148786854153
 20
33.77273058437017
 30
0.0
 10
-111.014948132906
 20
33.77259212006839
 30
0.0
 10
-111.0150027516906
 20
33.77257417811935
 30
0.0
 10
-111.0150300612282
 20
33.77256520709712
 30
0.0
  0
SPLINE
  5
290F
330
A
100
AcDbEntity
  8
001
  6
PHANTOM
370
     0
100
AcDbSpline
210
0.0
220
0.0
230
1.0
 70
     8
 71
     3
 72
    11
 73
     7
 74
     0
 42
0.0000000001
 43
0.0000000001
 40
0.0
 40
0.0
 40
0.0
 40
0.0
 40
0.2499915396510957
 40
0.4999970414860941
 40
0.7500142943707257
 40
1.0
 40
1.0
 40
1.0
 40
1.0
 10
-111.0060767276287
 20
33.77256520709712
 30
0.0
 10
-111.00610403126
 20
33.77257417926978
 30
0.0
 10
-111.0061586400476
 20
33.77259212411621
 30
0.0
 10
-111.0062280640269
 20
33.77273057849083
 30
0.0
 10
-111.0062776549883
 20
33.77292924897329
 30
0.0
 10
-111.0062856645016
 20
33.77308867799464
 30
0.0
 10
-111.0062896690056
 20
33.7731683874758
 30
0.0
  0
SPLINE
  5
2910
330
A
100
AcDbEntity
  8
001
  6
PHANTOM
370
     0
100
AcDbSpline
210
0.0
220
0.0
230
1.0
 70
     8
 71
     3
 72
    11
 73
     7
 74
     0
 42
0.0000000001
 43
0.0000000001
 40
0.0
 40
0.0
 40
0.0
 40
0.0
 40
0.2499835439118691
 40
0.499994212189387
 40
0.7499953499465418
 40
1.0
 40
1.0
 40
1.0
 40
1.0
 10
-111.0059489257242
 20
33.7731683874758
 30
0.0
 10
-111.0059513310224
 20
33.77308867832816
 30
0.0
 10
-111.0059561418799
 20
33.7729292513841
 30
0.0
 10
-111.0059859052535
 20
33.77273057729496
 30
0.0
 10
-111.0060275713027
 20
33.77259212094137
 30
0.0
 10
-111.00606034211
 20
33.77257417842055
 30
0.0
 10
-111.0060767276287
 20
33.77256520709712
 30
0.0
  0
SPLINE
  5
2911
330
A
100
AcDbEntity
  8
001
  6
PHANTOM
370
     0
100
AcDbSpline
210
0.0
220
0.0
230
1.0
 70
     8
 71
     3
 72
    11
 73
     7
 74
     0
 42
0.0000000001
 43
0.0000000001
 40
0.0
 40
0.0
 40
0.0
 40
0.0
 40
0.2499844163057925
 40
0.4999960186861114
 40
0.7499973818727841
 40
1.0
 40
1.0
 40
1.0
 40
1.0
 10
-111.0228701890287
 20
33.7731683874758
 30
0.0
 10
-111.0228637468626
 20
33.77308867831531
 30
0.0
 10
-111.0228508618297
 20
33.77292925132588
 30
0.0
 10
-111.0227712219176
 20
33.77273057758971
 30
0.0
 10
-111.0226597445235
 20
33.7725921213359
 30
0.0
 10
-111.0225720686895
 20
33.77257417852506
 30
0.0
 10
-111.0225282306624
 20
33.77256520709712
 30
0.0
  0
LINE
  5
2912
330
A
100
AcDbEntity
  8
001
  6
PHANTOM
370
     0
100
AcDbLine
 10
-111.0228701890286
 20
33.77316838747583
 30
0.0
 11
-111.0151577813509
 21
33.77316838747583
 31
0.0
  0
SPLINE
  5
2913
330
A
100
AcDbEntity
  8
001
  6
PHANTOM
370
     0
100
AcDbSpline
210
0.0
220
0.0
230
1.0
 70
     8
 71
     3
 72
    11
 73
     7
 74
     0
 42
0.0000000001
 43
0.0000000001
 40
0.0
 40
0.0
 40
0.0
 40
0.0
 40
0.2499962081047363
 40
0.5000057662891382
 40
0.7500135377563372
 40
1.0
 40
1.0
 40
1.0
 40
1.0
 10
-110.9985785581944
 20
33.77256520709712
 30
0.0
 10
-110.9985347136837
 20
33.77257417956014
 30
0.0
 10
-110.998447022321
 20
33.77259212496533
 30
0.0
 10
-110.9983355354385
 20
33.77273057212249
 30
0.0
 10
-110.9982558734259
 20
33.77292925489799
 30
0.0
 10
-110.9982429776113
 20
33.77308867888135
 30
0.0
 10
-110.9982365299789
 20
33.7731683874758
 30
0.0
  0
LINE
  5
2914
330
A
100
AcDbEntity
  8
001
  6
PHANTOM
370
     0
100
AcDbLine
 10
-111.0059489257241
 20
33.77316838747583
 30
0.0
 11
-110.9982365299789
 21
33.77316838747583
 31
0.0
  0
LINE
  5
2915
330
A
100
AcDbEntity
  8
001
  6
PHANTOM
370
     0
100
AcDbLine
 10
-110.9982365299789
 20
33.77316838747583
 30
0.0
 11
-110.9982360433629
 21
33.77319019905058
 31
0.0
  0
LINE
  5
2916
330
A
100
AcDbEntity
  8
001
  6
PHANTOM
370
     0
100
AcDbLine
 10
-111.0059374003164
 20
33.77730724087683
 30
0.0
 11
-110.9983497892814
 21
33.77730724087683
 31
0.0
  0
LINE
  5
2917
330
A
100
AcDbEntity
  8
001
  6
PHANTOM
370
     0
100
AcDbLine
 10
-110.9982360433629
 20
33.77319019905058
 30
0.0
 11
-110.9983497892814
 21
33.77730724087683
 31
0.0
  0
LINE
  5
2918
330
A
100
AcDbEntity
  8
001
  6
PHANTOM
370
     0
100
AcDbLine
 10
-111.0227569995754
 20
33.77730724087683
 30
0.0
 11
-111.0228707466581
 21
33.77319019905058
 31
0.0
  0
LINE
  5
2919
330
A
100
AcDbEntity
  8
001
  6
PHANTOM
370
     0
100
AcDbLine
 10
-111.0227569995754
 20
33.77730724087683
 30
0.0
 11
-111.0151693885404
 21
33.77730724087683
 31
0.0
  0
LINE
  5
291A
330
A
100
AcDbEntity
  8
001
  6
PHANTOM
370
     0
100
AcDbLine
 10
-111.0228707466581
 20
33.77319019905058
 30
0.0
 11
-111.0228701890286
 21
33.77316838747583
 31
0.0
  0
LINE
  5
291B
330
A
100
AcDbEntity
  8
001
  6
PHANTOM
370
     0
100
AcDbLine
 10
-111.0062896690056
 20
33.77316838747583
 30
0.0
 11
-111.0148170470916
 21
33.77316838747583
 31
0.0
  0
LINE
  5
291C
330
A
100
AcDbEntity
  8
001
  6
PHANTOM
370
     0
100
AcDbLine
 10
-111.0148291903739
 20
33.77730724087683
 30
0.0
 11
-111.0062775984829
 21
33.77730724087683
 31
0.0
  0
SPLINE
  5
291D
330
A
100
AcDbEntity
  8
001
  6
PHANTOM
370
     0
100
AcDbSpline
210
0.0
220
0.0
230
1.0
 70
     8
 71
     3
 72
    12
 73
     8
 74
     0
 42
0.0000000001
 43
0.0000000001
 40
0.0
 40
0.0
 40
0.0
 40
0.0
 40
0.239232452613763
 40
0.4952663350009744
 40
0.7088533322441237
 40
0.844801723749002
 40
1.0
 40
1.0
 40
1.0
 40
1.0
 10
-111.006277598483
 20
33.77730724087674
 30
0.0
 10
-111.0062726912381
 20
33.77749919255986
 30
0.0
 10
-111.0062625321099
 20
33.7778965768008
 30
0.0
 10
-111.0061988065553
 20
33.77837553122829
 30
0.0
 10
-111.0061298469158
 20
33.77865240572296
 30
0.0
 10
-111.0060645414225
 20
33.7787911367579
 30
0.0
 10
-111.0060273150982
 20
33.778806833729
 30
0.0
 10
-111.0060074712806
 20
33.77881520113666
 30
0.0
  0
SPLINE
  5
291E
330
A
100
AcDbEntity
  8
001
  6
PHANTOM
370
     0
100
AcDbSpline
210
0.0
220
0.0
230
1.0
 70
     8
 71
     3
 72
    12
 73
     8
 74
     0
 42
0.0000000001
 43
0.0000000001
 40
0.0
 40
0.0
 40
0.0
 40
0.0
 40
0.1459994787281381
 40
0.2790000290637807
 40
0.5050850169754754
 40
0.7587973844866802
 40
1.0
 40
1.0
 40
1.0
 40
1.0
 10
-111.0060074712806
 20
33.77881520113666
 30
0.0
 10
-111.0060014843199
 20
33.77880777627695
 30
0.0
 10
-111.005990043442
 20
33.77879358762307
 30
0.0
 10
-111.0059708460184
 20
33.77866136837661
 30
0.0
 10
-111.0059536551246
 20
33.77838431699505
 30
0.0
 10
-111.0059395839498
 20
33.77789816531653
 30
0.0
 10
-111.0059381158244
 20
33.77750086825467
 30
0.0
 10
-111.0059374003163
 20
33.77730724087674
 30
0.0
  0
SPLINE
  5
291F
330
A
100
AcDbEntity
  8
001
  6
PHANTOM
370
     0
100
AcDbSpline
210
0.0
220
0.0
230
1.0
 70
     8
 71
     3
 72
    12
 73
     8
 74
     0
 42
0.0000000001
 43
0.0000000001
 40
0.0
 40
0.0
 40
0.0
 40
0.0
 40
0.2411880979914418
 40
0.4949137745107665
 40
0.7209757072278986
 40
0.8539839125314955
 40
1.0
 40
1.0
 40
1.0
 40
1.0
 10
-111.0151693885405
 20
33.77730724087674
 30
0.0
 10
-111.0151686738554
 20
33.7775008541981
 30
0.0
 10
-111.0151672073341
 20
33.77789814535994
 30
0.0
 10
-111.0151531349086
 20
33.77838429272983
 30
0.0
 10
-111.0151359427629
 20
33.77866136718369
 30
0.0
 10
-111.0151167475171
 20
33.77879356551797
 30
0.0
 10
-111.0151053053644
 20
33.77880776855251
 30
0.0
 10
-111.0150993175762
 20
33.77881520113666
 30
0.0
  0
SPLINE
  5
2920
330
A
100
AcDbEntity
  8
001
  6
PHANTOM
370
     0
100
AcDbSpline
210
0.0
220
0.0
230
1.0
 70
     8
 71
     3
 72
    12
 73
     8
 74
     0
 42
0.0000000001
 43
0.0000000001
 40
0.0
 40
0.0
 40
0.0
 40
0.0
 40
0.1551752758875607
 40
0.2911187095767583
 40
0.5047342595247962
 40
0.7607577949821116
 40
1.0
 40
1.0
 40
1.0
 40
1.0
 10
-111.0150993175762
 20
33.77881520113666
 30
0.0
 10
-111.0150794762977
 20
33.77880682779373
 30
0.0
 10
-111.0150422527945
 20
33.77879111886862
 30
0.0
 10
-111.0149769472324
 20
33.77865245063684
 30
0.0
 10
-111.014907987165
 20
33.77837554785707
 30
0.0
 10
-111.0148442602349
 20
33.77789658099611
 30
0.0
 10
-111.0148340988936
 20
33.77749919935796
 30
0.0
 10
-111.0148291903738
 20
33.77730724087674
 30
0.0
  0
SPLINE
  5
2921
330
A
100
AcDbEntity
  8
001
  6
PHANTOM
370
     0
100
AcDbSpline
210
0.0
220
0.0
230
1.0
 70
     8
 71
     3
 72
    12
 73
     8
 74
     0
 42
0.0000000001
 43
0.0000000001
 40
0.0
 40
0.0
 40
0.0
 40
0.0
 40
0.1449797927554318
 40
0.2776345779035028
 40
0.5050806113027792
 40
0.7587885577638885
 40
1.0
 40
1.0
 40
1.0
 40
1.0
 10
-111.0216872836304
 20
33.77881520113666
 30
0.0
 10
-111.0217654022978
 20
33.7788078706493
 30
0.0
 10
-111.0219149986162
 20
33.77879383285323
 30
0.0
 10
-111.0221751857923
 20
33.778662378429
 30
0.0
 10
-111.0224562238668
 20
33.77838520254671
 30
0.0
 10
-111.0226969558969
 20
33.77789815650276
 30
0.0
 10
-111.0227373247817
 20
33.77750086897164
 30
0.0
 10
-111.0227569995755
 20
33.77730724087674
 30
0.0
  0
SPLINE
  5
2922
330
A
100
AcDbEntity
  8
001
  6
PHANTOM
370
     0
100
AcDbSpline
210
0.0
220
0.0
230
1.0
 70
     8
 71
     3
 72
    12
 73
     8
 74
     0
 42
0.0000000001
 43
0.0000000001
 40
0.0
 40
0.0
 40
0.0
 40
0.0
 40
0.241187622261769
 40
0.4949169245085668
 40
0.7209768084331656
 40
0.8539863254687213
 40
1.0
 40
1.0
 40
1.0
 40
1.0
 10
-110.9983497892813
 20
33.77730724087674
 30
0.0
 10
-110.9983694656166
 20
33.77750085509971
 30
0.0
 10
-110.9984098414505
 20
33.77789815142392
 30
0.0
 10
-110.9986500848621
 20
33.77838428582694
 30
0.0
 10
-110.9989305226586
 20
33.77866136983115
 30
0.0
 10
-110.9991905295932
 20
33.77879356414433
 30
0.0
 10
-110.9993408043136
 20
33.778807768142
 30
0.0
 10
-110.9994194435263
 20
33.77881520113666
 30
0.0
  0
SPLINE
  5
2923
330
A
100
AcDbEntity
  8
001
  6
PHANTOM
370
     0
100
AcDbSpline
210
0.0
220
0.0
230
1.0
 70
     8
 71
     3
 72
    12
 73
     8
 74
     0
 42
0.0000000001
 43
0.0000000001
 40
0.0
 40
0.0
 40
0.0
 40
0.0
 40
0.2392323928710194
 40
0.4952619877833134
 40
0.7088501760803197
 40
0.8447983358574997
 40
1.0
 40
1.0
 40
1.0
 40
1.0
 10
-110.9920788497971
 20
33.77730724087674
 30
0.0
 10
-110.9920949010114
 20
33.7774991916777
 30
0.0
 10
-110.9921281304425
 20
33.7778965707036
 30
0.0
 10
-110.9923245258198
 20
33.77837553750368
 30
0.0
 10
-110.9925583662694
 20
33.77865240437647
 30
0.0
 10
-110.9927804920612
 20
33.77879113801182
 30
0.0
 10
-110.9929175024014
 20
33.77880683410502
 30
0.0
 10
-110.9929905377635
 20
33.77881520113666
 30
0.0
  0
LINE
  5
2924
330
A
100
AcDbEntity
  8
001
  6
PHANTOM
370
     0
100
AcDbLine
 10
-110.9981257375171
 20
33.77730724087683
 30
0.0
 11
-110.9920788497971
 21
33.77730724087683
 31
0.0
  0
SPLINE
  5
2925
330
A
100
AcDbEntity
  8
001
  6
PHANTOM
370
     0
100
AcDbSpline
210
0.0
220
0.0
230
1.0
 70
     8
 71
     3
 72
    12
 73
     8
 74
     0
 42
0.0000000001
 43
0.0000000001
 40
0.0
 40
0.0
 40
0.0
 40
0.0
 40
0.1551768849537283
 40
0.2911187647905142
 40
0.5047356514335393
 40
0.7607578032092834
 40
1.0
 40
1.0
 40
1.0
 40
1.0
 10
-110.9994194435263
 20
33.77881520113666
 30
0.0
 10
-110.99931835744
 20
33.77880682817075
 30
0.0
 10
-110.9991287154286
 20
33.77879112011288
 30
0.0
 10
-110.9988142312122
 20
33.77865244839527
 30
0.0
 10
-110.9984828654108
 20
33.77837555127531
 30
0.0
 10
-110.9981963319181
 20
33.77789657882736
 30
0.0
 10
-110.9981487314028
 20
33.77749919901088
 30
0.0
 10
-110.9981257375171
 20
33.77730724087674
 30
0.0
  0
SPLINE
  5
2926
330
A
100
AcDbEntity
  8
001
  6
PHANTOM
370
     0
100
AcDbSpline
210
0.0
220
0.0
230
1.0
 70
     8
 71
     3
 72
     9
 73
     5
 74
     0
 42
0.0000000001
 43
0.0000000001
 40
0.0
 40
0.0
 40
0.0
 40
0.0
 40
0.4999863242975409
 40
1.0
 40
1.0
 40
1.0
 40
1.0
 10
-110.9983497892813
 20
33.77730724087674
 30
0.0
 10
-110.9983035182086
 20
33.77730766927731
 30
0.0
 10
-110.998210973532
 20
33.7773085261019
 30
0.0
 10
-110.9981541500401
 20
33.77730766929293
 30
0.0
 10
-110.9981257375171
 20
33.77730724087674
 30
0.0
  0
LINE
  5
2927
330
A
100
AcDbEntity
  8
001
  6
PHANTOM
370
     0
100
AcDbLine
 10
-110.9980121266404
 20
33.77319019905058
 30
0.0
 11
-110.9981257375171
 21
33.77730724087683
 31
0.0
  0
SPLINE
  5
2928
330
A
100
AcDbEntity
  8
001
  6
PHANTOM
370
     0
100
AcDbSpline
210
0.0
220
0.0
230
1.0
 70
     8
 71
     3
 72
     9
 73
     5
 74
     0
 42
0.0000000001
 43
0.0000000001
 40
0.0
 40
0.0
 40
0.0
 40
0.0
 40
0.5000127507923216
 40
1.0
 40
1.0
 40
1.0
 40
1.0
 10
-111.0229810501756
 20
33.77730724087674
 30
0.0
 10
-111.022952638092
 20
33.77730766929241
 30
0.0
 10
-111.0228958153741
 20
33.7773085261019
 30
0.0
 10
-111.0228032707217
 20
33.77730766927784
 30
0.0
 10
-111.0227569995755
 20
33.77730724087674
 30
0.0
  0
LINE
  5
2929
330
A
100
AcDbEntity
  8
001
  6
PHANTOM
370
     0
100
AcDbLine
 10
-111.0229810501756
 20
33.77730724087683
 30
0.0
 11
-111.0230946738579
 21
33.77319019905058
 31
0.0
  0
ARC
  5
292A
330
A
100
AcDbEntity
  8
001
  6
PHANTOM
370
     0
100
AcDbCircle
 10
-111.0229821025701
 20
33.78035858835858
 30
0.0
 40
0.0071910717822
100
AcDbArc
 50
269.1082786194001
 51
270.8917213805999
  0
LINE
  5
292B
330
A
100
AcDbEntity
  8
001
  6
PHANTOM
370
     0
100
AcDbLine
 10
-111.0230946738579
 20
33.77319019905058
 30
0.0
 11
-111.0230940161114
 21
33.77316838747583
 31
0.0
  0
LINE
  5
292C
330
A
100
AcDbEntity
  8
001
  6
PHANTOM
370
     0
100
AcDbLine
 10
-110.9980127401491
 20
33.77316838747583
 30
0.0
 11
-110.9980121266404
 21
33.77319019905058
 31
0.0
  0
ARC
  5
292D
330
A
100
AcDbEntity
  8
001
  6
PHANTOM
370
     0
100
AcDbCircle
 10
-110.9981246350639
 20
33.78035610435183
 30
0.0
 40
0.0071885877864624
100
AcDbArc
 50
269.1081189407004
 51
270.8918810592995
  0
SPLINE
  5
292E
330
A
100
AcDbEntity
  8
001
  6
PHANTOM
370
     0
100
AcDbSpline
210
0.0
220
0.0
230
1.0
 70
     8
 71
     3
 72
    11
 73
     7
 74
     0
 42
0.0000000001
 43
0.0000000001
 40
0.0
 40
0.0
 40
0.0
 40
0.0
 40
0.2499988665281203
 40
0.5000012719097576
 40
0.7500145134187021
 40
1.0
 40
1.0
 40
1.0
 40
1.0
 10
-111.0225282306624
 20
33.77256520709712
 30
0.0
 10
-111.0226007666431
 20
33.77257417876204
 30
0.0
 10
-111.0227458396313
 20
33.77259212221888
 30
0.0
 10
-111.0229302887518
 20
33.7727305778674
 30
0.0
 10
-111.0230620537465
 20
33.7729292510055
 30
0.0
 10
-111.023083362384
 20
33.77308867826896
 30
0.0
 10
-111.0230940161114
 20
33.7731683874758
 30
0.0
  0
SPLINE
  5
292F
330
A
100
AcDbEntity
  8
001
  6
PHANTOM
370
     0
100
AcDbSpline
210
0.0
220
0.0
230
1.0
 70
     8
 71
     3
 72
    11
 73
     7
 74
     0
 42
0.0000000001
 43
0.0000000001
 40
0.0
 40
0.0
 40
0.0
 40
0.0
 40
0.2499853308437509
 40
0.4999991136234402
 40
0.7500003579612137
 40
1.0
 40
1.0
 40
1.0
 40
1.0
 10
-110.9980127401491
 20
33.7731683874758
 30
0.0
 10
-110.9980233960033
 20
33.77308867819828
 30
0.0
 10
-110.9980447089246
 20
33.77292925057119
 30
0.0
 10
-110.9981764840114
 20
33.77273057863151
 30
0.0
 10
-110.9983609400827
 20
33.77259212173281
 30
0.0
 10
-110.9985060189788
 20
33.77257417862319
 30
0.0
 10
-110.9985785581944
 20
33.77256520709712
 30
0.0
  0
SPLINE
  5
2930
330
A
100
AcDbEntity
  8
001
  6
PHANTOM
370
     0
100
AcDbSpline
210
0.0
220
0.0
230
1.0
 70
     8
 71
     3
 72
    11
 73
     7
 74
     0
 42
0.0000000001
 43
0.0000000001
 40
0.0
 40
0.0
 40
0.0
 40
0.0
 40
0.2499846202565673
 40
0.4999957337931143
 40
0.7499915998477733
 40
1.0
 40
1.0
 40
1.0
 40
1.0
 10
-111.0291237640036
 20
33.7731683874758
 30
0.0
 10
-111.0291187798819
 20
33.7730886782978
 30
0.0
 10
-111.0291088111104
 20
33.77292925149427
 30
0.0
 10
-111.0290471937977
 20
33.77273057965837
 30
0.0
 10
-111.0289609427307
 20
33.77259211887378
 30
0.0
 10
-111.0288931099587
 20
33.77257417783926
 30
0.0
 10
-111.0288591927224
 20
33.77256520709712
 30
0.0
  0
LINE
  5
2931
330
A
100
AcDbEntity
  8
001
  6
PHANTOM
370
     0
100
AcDbLine
 10
-111.0230940161114
 20
33.77316838747583
 30
0.0
 11
-111.0291237640036
 21
33.77316838747583
 31
0.0
  0
SPLINE
  5
2932
330
A
100
AcDbEntity
  8
001
  6
PHANTOM
370
     0
100
AcDbSpline
210
0.0
220
0.0
230
1.0
 70
     8
 71
     3
 72
    12
 73
     8
 74
     0
 42
0.0000000001
 43
0.0000000001
 40
0.0
 40
0.0
 40
0.0
 40
0.0
 40
0.2392153537297396
 40
0.4952492842495208
 40
0.7067289911751816
 40
0.843209743779634
 40
1.0
 40
1.0
 40
1.0
 40
1.0
 10
-111.0229810501756
 20
33.77730724087674
 30
0.0
 10
-111.0229580650957
 20
33.77749917742356
 30
0.0
 10
-111.0229104789179
 20
33.77789654505045
 30
0.0
 10
-111.022624750989
 20
33.77837410009664
 30
0.0
 10
-111.0222948516341
 20
33.77865081865675
 30
0.0
 10
-111.0219806191017
 20
33.77879067094261
 30
0.0
 10
-111.0217894744815
 20
33.77880665542142
 30
0.0
 10
-111.0216872836304
 20
33.77881520113666
 30
0.0
  0
LINE
  5
2933
330
A
100
AcDbEntity
  8
001
  6
PHANTOM
370
     0
100
AcDbLine
 10
-110.9919829538399
 20
33.77316838747583
 30
0.0
 11
-110.9980127401491
 21
33.77316838747583
 31
0.0
  0
SPLINE
  5
2934
330
A
100
AcDbEntity
  8
001
  6
PHANTOM
370
     0
100
AcDbSpline
210
0.0
220
0.0
230
1.0
 70
     8
 71
     3
 72
    11
 73
     7
 74
     0
 42
0.0000000001
 43
0.0000000001
 40
0.0
 40
0.0
 40
0.0
 40
0.0
 40
0.2499978505953655
 40
0.4999998531895742
 40
0.7500143179325132
 40
1.0
 40
1.0
 40
1.0
 40
1.0
 10
-110.9922475961344
 20
33.77256520709712
 30
0.0
 10
-110.9922136727284
 20
33.7725741787567
 30
0.0
 10
-110.9921458253531
 20
33.77259212222488
 30
0.0
 10
-110.9920595590577
 20
33.77273057861682
 30
0.0
 10
-110.9919979261826
 20
33.7729292504009
 30
0.0
 10
-110.9919879444293
 20
33.77308867817667
 30
0.0
 10
-110.9919829538399
 20
33.7731683874758
 30
0.0
  0
LINE
  5
2935
330
A
100
AcDbEntity
  8
001
  6
PHANTOM
370
     0
100
AcDbLine
 10
-110.9919825382371
 20
33.77319019905058
 30
0.0
 11
-110.9919829538399
 21
33.77316838747583
 31
0.0
  0
LINE
  5
2936
330
A
100
AcDbEntity
  8
001
  6
PHANTOM
370
     0
100
AcDbLine
 10
-110.9920788497971
 20
33.77730724087683
 30
0.0
 11
-110.9919825382371
 21
33.77319019905058
 31
0.0
  0
LINE
  5
2937
330
A
100
AcDbEntity
  8
001
  6
PHANTOM
370
     0
100
AcDbLine
 10
-111.0291242273366
 20
33.77319019905058
 30
0.0
 11
-111.0290279390596
 21
33.77730724087683
 31
0.0
  0
LINE
  5
2938
330
A
100
AcDbEntity
  8
001
  6
PHANTOM
370
     0
100
AcDbLine
 10
-111.0290279390596
 20
33.77730724087683
 30
0.0
 11
-111.0229810501756
 21
33.77730724087683
 31
0.0
  0
LINE
  5
2939
330
A
100
AcDbEntity
  8
001
  6
PHANTOM
370
     0
100
AcDbLine
 10
-111.0291237640036
 20
33.77316838747583
 30
0.0
 11
-111.0291242273366
 21
33.77319019905058
 31
0.0
  0
SPLINE
  5
293A
330
A
100
AcDbEntity
  8
001
  6
PHANTOM
370
     0
100
AcDbSpline
210
0.0
220
0.0
230
1.0
 70
     8
 71
     3
 72
    12
 73
     8
 74
     0
 42
0.0000000001
 43
0.0000000001
 40
0.0
 40
0.0
 40
0.0
 40
0.0
 40
0.1551825806649511
 40
0.2911239312247988
 40
0.5047373318589142
 40
0.7607600277239694
 40
1.0
 40
1.0
 40
1.0
 40
1.0
 10
-111.0281162510933
 20
33.77881520113666
 30
0.0
 10
-111.0281892772142
 20
33.77880682860286
 30
0.0
 10
-111.0283262748805
 20
33.77879112165338
 30
0.0
 10
-111.0285484028917
 20
33.77865245017194
 30
0.0
 10
-111.0287822505674
 20
33.77837554606927
 30
0.0
 10
-111.0289786565601
 20
33.77789658315605
 30
0.0
 10
-111.0290118869134
 20
33.77749919965647
 30
0.0
 10
-111.0290279390597
 20
33.77730724087674
 30
0.0
  0
SPLINE
  5
293B
330
A
100
AcDbEntity
  8
001
  6
PHANTOM
370
     0
100
AcDbSpline
210
0.0
220
0.0
230
1.0
 70
     8
 71
     3
 72
     9
 73
     5
 74
     0
 42
0.0000000001
 43
0.0000000001
 40
0.0
 40
0.0
 40
0.0
 40
0.0
 40
0.4999899828819538
 40
1.0
 40
1.0
 40
1.0
 40
1.0
 10
-111.0292850003885
 20
33.77730724087674
 30
0.0
 10
-111.0292499392469
 20
33.7773076692794
 30
0.0
 10
-111.0291798155589
 20
33.7773085261019
 30
0.0
 10
-111.0290785652356
 20
33.77730766929085
 30
0.0
 10
-111.0290279390597
 20
33.77730724087674
 30
0.0
  0
LINE
  5
293C
330
A
100
AcDbEntity
  8
001
  6
PHANTOM
370
     0
100
AcDbLine
 10
-111.0293824376846
 20
33.77319019905058
 30
0.0
 11
-111.0292850003884
 21
33.77730724087683
 31
0.0
  0
SPLINE
  5
293D
330
A
100
AcDbEntity
  8
001
  6
PHANTOM
370
     0
100
AcDbSpline
210
0.0
220
0.0
230
1.0
 70
     8
 71
     3
 72
     9
 73
     5
 74
     0
 42
0.0000000001
 43
0.0000000001
 40
0.0
 40
0.0
 40
0.0
 40
0.0
 40
0.5000100171180462
 40
1.0
 40
1.0
 40
1.0
 40
1.0
 10
-110.9920788497971
 20
33.77730724087674
 30
0.0
 10
-110.9920282236212
 20
33.77730766929085
 30
0.0
 10
-110.9919269732979
 20
33.7773085261019
 30
0.0
 10
-110.9918568496099
 20
33.7773076692794
 30
0.0
 10
-110.9918217884684
 20
33.77730724087674
 30
0.0
  0
LINE
  5
293E
330
A
100
AcDbEntity
  8
001
  6
PHANTOM
370
     0
100
AcDbLine
 10
-110.9918217884684
 20
33.77730724087683
 30
0.0
 11
-110.9917243674704
 21
33.77319019905058
 31
0.0
  0
ARC
  5
293F
330
A
100
AcDbEntity
  8
001
  6
PHANTOM
370
     0
100
AcDbCircle
 10
-111.0292528278501
 20
33.78282241905508
 30
0.0
 40
0.0096548942620209
100
AcDbArc
 50
269.2340637039996
 51
270.7659362960003
  0
LINE
  5
2940
330
A
100
AcDbEntity
  8
001
  6
PHANTOM
370
     0
100
AcDbLine
 10
-111.0293818916966
 20
33.77316838747583
 30
0.0
 11
-111.0293824376846
 21
33.77319019905058
 31
0.0
  0
LINE
  5
2941
330
A
100
AcDbEntity
  8
001
  6
PHANTOM
370
     0
100
AcDbLine
 10
-110.9917243674704
 20
33.77319019905058
 30
0.0
 11
-110.9917249437264
 21
33.77316838747583
 31
0.0
  0
ARC
  5
2942
330
A
100
AcDbEntity
  8
001
  6
PHANTOM
370
     0
100
AcDbCircle
 10
-110.9918539487831
 20
33.78281378179684
 30
0.0
 40
0.0096462569896957
100
AcDbArc
 50
269.2337270667002
 51
270.7662729332997
  0
SPLINE
  5
2943
330
A
100
AcDbEntity
  8
001
  6
PHANTOM
370
     0
100
AcDbSpline
210
0.0
220
0.0
230
1.0
 70
     8
 71
     3
 72
    11
 73
     7
 74
     0
 42
0.0000000001
 43
0.0000000001
 40
0.0
 40
0.0
 40
0.0
 40
0.0
 40
0.2499961264638435
 40
0.5000022944318175
 40
0.7500148622700152
 40
1.0
 40
1.0
 40
1.0
 40
1.0
 10
-111.0288591927224
 20
33.77256520709712
 30
0.0
 10
-111.0289262047096
 20
33.77257417919167
 30
0.0
 10
-111.0290602313757
 20
33.77259212374116
 30
0.0
 10
-111.0292306258732
 20
33.77273057597742
 30
0.0
 10
-111.029352358472
 20
33.77292925135006
 30
0.0
 10
-111.0293720476485
 20
33.7730886783493
 30
0.0
 10
-111.0293818916967
 20
33.7731683874758
 30
0.0
  0
SPLINE
  5
2944
330
A
100
AcDbEntity
  8
001
  6
PHANTOM
370
     0
100
AcDbSpline
210
0.0
220
0.0
230
1.0
 70
     8
 71
     3
 72
    11
 73
     7
 74
     0
 42
0.0000000001
 43
0.0000000001
 40
0.0
 40
0.0
 40
0.0
 40
0.0
 40
0.2499846140321261
 40
0.4999976397802254
 40
0.7500038074336491
 40
1.0
 40
1.0
 40
1.0
 40
1.0
 10
-110.9917249437263
 20
33.7731683874758
 30
0.0
 10
-110.9917347833233
 20
33.77308867827492
 30
0.0
 10
-110.9917544636357
 20
33.77292925081392
 30
0.0
 10
-110.9918761865922
 20
33.77273057623781
 30
0.0
 10
-110.9920465690443
 20
33.77259212368439
 30
0.0
 10
-110.9921805879956
 20
33.77257417917355
 30
0.0
 10
-110.9922475961344
 20
33.77256520709712
 30
0.0
  0
SPLINE
  5
2945
330
A
100
AcDbEntity
  8
001
  6
PHANTOM
370
     0
100
AcDbSpline
210
0.0
220
0.0
230
1.0
 70
     8
 71
     3
 72
    12
 73
     8
 74
     0
 42
0.0000000001
 43
0.0000000001
 40
0.0
 40
0.0
 40
0.0
 40
0.0
 40
0.145936584420648
 40
0.2789158181275735
 40
0.5050869027512004
 40
0.7587968052884994
 40
1.0
 40
1.0
 40
1.0
 40
1.0
 10
-110.9929905377635
 20
33.77881520113666
 30
0.0
 10
-110.9929034827475
 20
33.7788077835301
 30
0.0
 10
-110.9927371021163
 20
33.77879360690806
 30
0.0
 10
-110.9924499200865
 20
33.7786614440235
 30
0.0
 10
-110.9921451139381
 20
33.77838437322958
 30
0.0
 10
-110.9918849399977
 20
33.7778981622282
 30
0.0
 10
-110.9918424813273
 20
33.77750086805135
 30
0.0
 10
-110.9918217884684
 20
33.77730724087674
 30
0.0
  0
SPLINE
  5
2946
330
A
100
AcDbEntity
  8
001
  6
PHANTOM
370
     0
100
AcDbSpline
210
0.0
220
0.0
230
1.0
 70
     8
 71
     3
 72
    12
 73
     8
 74
     0
 42
0.0000000001
 43
0.0000000001
 40
0.0
 40
0.0
 40
0.0
 40
0.0
 40
0.2411870477602024
 40
0.4949138017234651
 40
0.7209774426124101
 40
0.8539789251361515
 40
1.0
 40
1.0
 40
1.0
 40
1.0
 10
-111.0292850003885
 20
33.77730724087674
 30
0.0
 10
-111.0292643149269
 20
33.77750085444587
 30
0.0
 10
-111.0292218685329
 20
33.77789814786794
 30
0.0
 10
-111.0289617095136
 20
33.77838429429773
 30
0.0
 10
-111.0286569845329
 20
33.77866136069507
 30
0.0
 10
-111.0283697995954
 20
33.77879356952668
 30
0.0
 10
-111.0282033560915
 20
33.77880776973268
 30
0.0
 10
-111.0281162510933
 20
33.77881520113666
 30
0.0
  0
LINE
  5
2947
330
A
100
AcDbEntity
  8
001
  6
PHANTOM
370
     0
100
AcDbLine
 10
-110.9917249437264
 20
33.77316838747583
 30
0.0
 11
-110.9885303303441
 21
33.77316838747583
 31
0.0
  0
LINE
  5
2948
330
A
100
AcDbEntity
  8
001
  6
PHANTOM
370
     0
100
AcDbLine
 10
-111.0325764422146
 20
33.77316838747583
 30
0.0
 11
-111.0293818916966
 21
33.77316838747583
 31
0.0
  0
LINE
  5
2949
330
A
100
AcDbEntity
  8
001
  6
PHANTOM
370
     0
100
AcDbLine
 10
-110.9918217884684
 20
33.77730724087683
 30
0.0
 11
-110.9886788972494
 21
33.77730724087683
 31
0.0
  0
LINE
  5
294A
330
A
100
AcDbEntity
  8
001
  6
PHANTOM
370
     0
100
AcDbLine
 10
-110.9885295620029
 20
33.77319019905058
 30
0.0
 11
-110.9886788972494
 21
33.77730724087683
 31
0.0
  0
LINE
  5
294B
330
A
100
AcDbEntity
  8
001
  6
PHANTOM
370
     0
100
AcDbLine
 10
-110.9885303303441
 20
33.77316838747583
 30
0.0
 11
-110.9885295620029
 21
33.77319019905058
 31
0.0
  0
LINE
  5
294C
330
A
100
AcDbEntity
  8
001
  6
PHANTOM
370
     0
100
AcDbLine
 10
-111.0324278916074
 20
33.77730724087683
 30
0.0
 11
-111.0325772221974
 21
33.77319019905058
 31
0.0
  0
LINE
  5
294D
330
A
100
AcDbEntity
  8
001
  6
PHANTOM
370
     0
100
AcDbLine
 10
-111.0324278916074
 20
33.77730724087683
 30
0.0
 11
-111.0292850003884
 21
33.77730724087683
 31
0.0
  0
LINE
  5
294E
330
A
100
AcDbEntity
  8
001
  6
PHANTOM
370
     0
100
AcDbLine
 10
-111.0325772221974
 20
33.77319019905058
 30
0.0
 11
-111.0325764422146
 21
33.77316838747583
 31
0.0
  0
LINE
  5
294F
330
A
100
AcDbEntity
  8
001
  6
PHANTOM
370
     0
100
AcDbLine
 10
-110.9886654815479
 20
33.77730804181409
 30
0.0
 11
-110.9887022385214
 21
33.77730724087683
 31
0.0
  0
LINE
  5
2950
330
A
100
AcDbEntity
  8
001
  6
PHANTOM
370
     0
100
AcDbLine
 10
-110.9925533947376
 20
33.73544021195483
 30
0.0
 11
-111.0285533941191
 21
33.73544021195483
 31
0.0
  0
LINE
  5
2951
330
A
100
AcDbEntity
  8
001
  6
PHANTOM
370
     0
100
AcDbLine
 10
-111.0432725655686
 20
33.47887763439433
 30
0.0
 11
-111.0397370322449
 21
33.48241316771833
 31
0.0
  0
LINE
  5
2952
330
A
100
AcDbEntity
  8
001
  6
PHANTOM
370
     0
100
AcDbLine
 10
-111.0520804347311
 20
33.49475657020458
 30
0.0
 11
-111.0556159680551
 21
33.49122103688058
 31
0.0
  0
SPLINE
  5
2953
330
A
100
AcDbEntity
  8
001
  6
PHANTOM
370
     0
100
AcDbSpline
210
0.0
220
0.0
230
1.0
 70
     8
 71
     3
 72
    35
 73
    31
 74
     0
 42
0.0000000001
 43
0.0000000001
 40
0.0
 40
0.0
 40
0.0
 40
0.0
 40
0.0388161880465387
 40
0.0788307882609406
 40
0.1199756494376989
 40
0.1521366117874651
 40
0.1843034238222557
 40
0.2171486968708288
 40
0.249999979780805
 40
0.28284524852097
 40
0.3156965353620512
 40
0.3478574767008495
 40
0.3800243102930206
 40
0.4211639741743135
 40
0.4611824807658911
 40
0.4999999904295181
 40
0.5388122326725032
 40
0.5788308086776154
 40
0.6199756698543736
 40
0.6521366322041398
 40
0.6843034442389305
 40
0.7171487172875036
 40
0.7500000001974798
 40
0.7828452689376447
 40
0.8156965557787259
 40
0.8478574971175243
 40
0.8800243307096952
 40
0.921163994590988
 40
0.9611811746471271
 40
1.0
 40
1.0
 40
1.0
 40
1.0
 10
-111.0462653660057
 20
33.52394020802099
 30
0.0
 10
-111.0462141396298
 20
33.52248846693385
 30
0.0
 10
-111.0461101053134
 20
33.51954016366118
 30
0.0
 10
-111.0452527971265
 20
33.51512050995518
 30
0.0
 10
-111.0439549489733
 20
33.51107842692517
 30
0.0
 10
-111.0423172620036
 20
33.50748454633
 30
0.0
 10
-111.0404819637861
 20
33.50434330772978
 30
0.0
 10
-111.0383223536368
 20
33.50138284572542
 30
0.0
 10
-111.0358502367546
 20
33.49864369006566
 30
0.0
 10
-111.0331109309132
 20
33.49617136742844
 30
0.0
 10
-111.0301506668459
 20
33.49401197461022
 30
0.0
 10
-111.0270092527472
 20
33.49217610250005
 30
0.0
 10
-111.0234155639157
 20
33.49054021734537
 30
0.0
 10
-111.019373317404
 20
33.48923400127145
 30
0.0
 10
-111.0149536920184
 20
33.4884079540354
 30
0.0
 10
-111.0105535900183
 20
33.48813974955744
 30
0.0
 10
-111.0061534939936
 20
33.48840795442456
 30
0.0
 10
-111.0017338398426
 20
33.48923385317671
 30
0.0
 10
-110.9976916129477
 20
33.49054007698319
 30
0.0
 10
-110.9940977329443
 20
33.49217599945808
 30
0.0
 10
-110.990956493639
 20
33.49401173218515
 30
0.0
 10
-110.9879960339575
 20
33.49617122352722
 30
0.0
 10
-110.9852568696879
 20
33.49864337247012
 30
0.0
 10
-110.9827845791482
 20
33.50138266971677
 30
0.0
 10
-110.9806250673718
 20
33.50434293608891
 30
0.0
 10
-110.9787896302565
 20
33.50748434953977
 30
0.0
 10
-110.9771519783497
 20
33.51107803873338
 30
0.0
 10
-110.9758541165821
 20
33.51512023696126
 30
0.0
 10
-110.9749966393902
 20
33.51953986310189
 30
0.0
 10
-110.9748926347196
 20
33.5224883660541
 30
0.0
 10
-110.9748414228512
 20
33.52394020802099
 30
0.0
  0
SPLINE
  5
2954
330
A
100
AcDbEntity
  8
001
  6
PHANTOM
370
     0
100
AcDbSpline
210
0.0
220
0.0
230
1.0
 70
     8
 71
     3
 72
    35
 73
    31
 74
     0
 42
0.0000000001
 43
0.0000000001
 40
0.0
 40
0.0
 40
0.0
 40
0.0
 40
0.038816188046539
 40
0.0788307882609409
 40
0.1199756494376991
 40
0.1521366117874653
 40
0.1843034238222558
 40
0.2171486968708289
 40
0.2499999797808052
 40
0.28284524852097
 40
0.3156965353620512
 40
0.3478574767008495
 40
0.3800243102930206
 40
0.4211639741743133
 40
0.461182480765891
 40
0.4999999904295191
 40
0.5388122326725032
 40
0.5788308086776154
 40
0.6199756698543735
 40
0.6521366322041398
 40
0.6843034442389304
 40
0.7171487172875035
 40
0.7500000001974796
 40
0.7828452689376447
 40
0.8156965557787255
 40
0.8478574971175241
 40
0.880024330709695
 40
0.921163994590988
 40
0.9611811746471268
 40
1.0
 40
1.0
 40
1.0
 40
1.0
 10
-110.9748414228512
 20
33.52394020802099
 30
0.0
 10
-110.974892649227
 20
33.52539194910813
 30
0.0
 10
-110.9749966835434
 20
33.52834025238081
 30
0.0
 10
-110.9758539917303
 20
33.5327599060868
 30
0.0
 10
-110.9771518398835
 20
33.53680198911682
 30
0.0
 10
-110.9787895268532
 20
33.54039586971198
 30
0.0
 10
-110.9806248250707
 20
33.54353710831221
 30
0.0
 10
-110.98278443522
 20
33.54649757031657
 30
0.0
 10
-110.9852565521022
 20
33.54923672597633
 30
0.0
 10
-110.9879958579436
 20
33.55170904861354
 30
0.0
 10
-110.9909561220109
 20
33.55386844143176
 30
0.0
 10
-110.9940975361096
 20
33.55570431354193
 30
0.0
 10
-110.9976912249411
 20
33.55734019869661
 30
0.0
 10
-111.0017334714528
 20
33.55864641477053
 30
0.0
 10
-111.0061530968384
 20
33.55947246200658
 30
0.0
 10
-111.0105531988385
 20
33.55974066648454
 30
0.0
 10
-111.0149532948632
 20
33.55947246161742
 30
0.0
 10
-111.0193729490142
 20
33.55864656286527
 30
0.0
 10
-111.0234151759091
 20
33.5573403390588
 30
0.0
 10
-111.0270090559125
 20
33.5557044165839
 30
0.0
 10
-111.0301502952178
 20
33.55386868385682
 30
0.0
 10
-111.0331107548993
 20
33.55170919251476
 30
0.0
 10
-111.0358499191689
 20
33.54923704357187
 30
0.0
 10
-111.0383222097086
 20
33.54649774632521
 30
0.0
 10
-111.040481721485
 20
33.54353747995307
 30
0.0
 10
-111.0423171586004
 20
33.54039606650221
 30
0.0
 10
-111.0439548105071
 20
33.5368023773086
 30
0.0
 10
-111.0452526722748
 20
33.53276017908072
 30
0.0
 10
-111.0461101494667
 20
33.52834055294009
 30
0.0
 10
-111.0462141541372
 20
33.52539204998787
 30
0.0
 10
-111.0462653660057
 20
33.52394020802099
 30
0.0
  0
CIRCLE
  5
2955
330
A
100
AcDbEntity
  8
001
  6
PHANTOM
370
     0
100
AcDbCircle
 10
-111.0105533944284
 20
33.52394020802108
 30
0.0
 40
0.028008118377237
  0
LINE
  5
2956
330
A
100
AcDbEntity
  8
001
  6
PHANTOM
370
     0
100
AcDbLine
 10
-111.0410910961059
 20
33.48376723157933
 30
0.0
 11
-111.0446266294299
 21
33.48023169825534
 31
0.0
  0
LINE
  5
2957
330
A
100
AcDbEntity
  8
001
  6
PHANTOM
370
     0
100
AcDbLine
 10
-111.0542619041939
 20
33.48986697301958
 30
0.0
 11
-111.0507263708701
 21
33.49340250634358
 31
0.0
  0
CIRCLE
  5
2958
330
A
100
AcDbEntity
  8
001
  6
PHANTOM
370
     0
100
AcDbCircle
 10
-111.0105533944284
 20
33.52394020802108
 30
0.0
 40
0.0164388440187875
  0
LINE
  5
2959
330
A
100
AcDbEntity
  8
001
  6
PHANTOM
370
     0
100
AcDbLine
 10
-110.9949283941956
 20
33.62706521211883
 30
0.0
 11
-111.0261783946611
 21
33.62706521211883
 31
0.0
  0
LINE
  5
295A
330
A
100
AcDbEntity
  8
001
  6
CENTERX2
370
     0
100
AcDbLine
 10
-111.0105533944284
 20
33.52394020802108
 30
0.0
 11
-111.0563896758121
 21
33.47810392663733
 31
0.0
  0
LINE
  5
295B
330
A
100
AcDbEntity
  8
001
  6
CENTERX2
370
     0
100
AcDbLine
 10
-111.0590358447221
 20
33.49817644629033
 30
0.0
 11
-111.0358764733129
 21
33.47501707488083
 31
0.0
  0
LINE
  5
2A66
330
A
100
AcDbEntity
  8
001
  6
Continuous
370
     0
100
AcDbLine
 10
-110.9688658944284
 20
33.52394020802108
 30
0.0
 11
-110.9688658944284
 21
33.52706520802108
 31
0.0
  0
LINE
  5
2A67
330
A
100
AcDbEntity
  8
001
  6
Continuous
370
     0
100
AcDbLine
 10
-110.9688658944284
 20
33.52394020802108
 30
0.0
 11
-110.9719908944284
 21
33.52394020802108
 31
0.0
  0
LINE
  5
2A68
330
A
100
AcDbEntity
  8
001
  6
Continuous
370
     0
100
AcDbLine
 10
-110.9688658944284
 20
33.52394020802108
 30
0.0
 11
-110.9688658944284
 21
33.52081520802109
 31
0.0
  0
LINE
  5
2A69
330
A
100
AcDbEntity
  8
001
  6
Continuous
370
     0
100
AcDbLine
 10
-110.9688658944284
 20
33.52394020802108
 30
0.0
 11
-110.9657408944284
 21
33.52394020802108
 31
0.0
  0
LINE
  5
2A6A
330
A
100
AcDbEntity
  8
001
  6
Continuous
370
     0
100
AcDbLine
 10
-110.9688658944284
 20
33.53019020802109
 30
0.0
 11
-110.9688658944284
 21
33.53144020802108
 31
0.0
  0
LINE
  5
2A6B
330
A
100
AcDbEntity
  8
001
  6
Continuous
370
     0
100
AcDbLine
 10
-110.9751158944284
 20
33.52394020802108
 30
0.0
 11
-110.9763658944284
 21
33.52394020802108
 31
0.0
  0
LINE
  5
2A6C
330
A
100
AcDbEntity
  8
001
  6
Continuous
370
     0
100
AcDbLine
 10
-110.9688658944284
 20
33.51769020802108
 30
0.0
 11
-110.9688658944284
 21
33.51644020802108
 31
0.0
  0
LINE
  5
2A6D
330
A
100
AcDbEntity
  8
001
  6
Continuous
370
     0
100
AcDbLine
 10
-110.9626158944284
 20
33.52394020802108
 30
0.0
 11
-110.9613658944284
 21
33.52394020802108
 31
0.0
  0
LINE
  5
2A6E
330
A
100
AcDbEntity
  8
001
  6
Continuous
370
     0
100
AcDbLine
 10
-111.0105533944284
 20
33.47175270802108
 30
0.0
 11
-111.0105533944284
 21
33.47487770802109
 31
0.0
  0
LINE
  5
2A6F
330
A
100
AcDbEntity
  8
001
  6
Continuous
370
     0
100
AcDbLine
 10
-111.0105533944284
 20
33.47175270802108
 30
0.0
 11
-111.0136783944284
 21
33.47175270802108
 31
0.0
  0
LINE
  5
2A70
330
A
100
AcDbEntity
  8
001
  6
Continuous
370
     0
100
AcDbLine
 10
-111.0105533944284
 20
33.47175270802108
 30
0.0
 11
-111.0105533944284
 21
33.46862770802109
 31
0.0
  0
LINE
  5
2A71
330
A
100
AcDbEntity
  8
001
  6
Continuous
370
     0
100
AcDbLine
 10
-111.0105533944284
 20
33.47175270802108
 30
0.0
 11
-111.0074283944284
 21
33.47175270802108
 31
0.0
  0
LINE
  5
2A72
330
A
100
AcDbEntity
  8
001
  6
Continuous
370
     0
100
AcDbLine
 10
-111.0105533944284
 20
33.47800270802109
 30
0.0
 11
-111.0105533944284
 21
33.47925270802108
 31
0.0
  0
LINE
  5
2A73
330
A
100
AcDbEntity
  8
001
  6
Continuous
370
     0
100
AcDbLine
 10
-111.0168033944284
 20
33.47175270802108
 30
0.0
 11
-111.0180533944284
 21
33.47175270802108
 31
0.0
  0
LINE
  5
2A74
330
A
100
AcDbEntity
  8
001
  6
Continuous
370
     0
100
AcDbLine
 10
-111.0105533944284
 20
33.46550270802109
 30
0.0
 11
-111.0105533944284
 21
33.46425270802108
 31
0.0
  0
LINE
  5
2A75
330
A
100
AcDbEntity
  8
001
  6
Continuous
370
     0
100
AcDbLine
 10
-111.0043033944284
 20
33.47175270802108
 30
0.0
 11
-111.0030533944284
 21
33.47175270802108
 31
0.0
  0
LINE
  5
2A76
330
A
100
AcDbEntity
  8
001
  6
Continuous
370
     0
100
AcDbLine
 10
-111.0522408944284
 20
33.52394020802108
 30
0.0
 11
-111.0522408944284
 21
33.52706520802108
 31
0.0
  0
LINE
  5
2A77
330
A
100
AcDbEntity
  8
001
  6
Continuous
370
     0
100
AcDbLine
 10
-111.0522408944284
 20
33.52394020802108
 30
0.0
 11
-111.0553658944284
 21
33.52394020802108
 31
0.0
  0
LINE
  5
2A78
330
A
100
AcDbEntity
  8
001
  6
Continuous
370
     0
100
AcDbLine
 10
-111.0522408944284
 20
33.52394020802108
 30
0.0
 11
-111.0522408944284
 21
33.52081520802109
 31
0.0
  0
LINE
  5
2A79
330
A
100
AcDbEntity
  8
001
  6
Continuous
370
     0
100
AcDbLine
 10
-111.0522408944284
 20
33.52394020802108
 30
0.0
 11
-111.0491158944284
 21
33.52394020802108
 31
0.0
  0
LINE
  5
2A7A
330
A
100
AcDbEntity
  8
001
  6
Continuous
370
     0
100
AcDbLine
 10
-111.0522408944284
 20
33.53019020802109
 30
0.0
 11
-111.0522408944284
 21
33.53144020802108
 31
0.0
  0
LINE
  5
2A7B
330
A
100
AcDbEntity
  8
001
  6
Continuous
370
     0
100
AcDbLine
 10
-111.0584908944284
 20
33.52394020802108
 30
0.0
 11
-111.0597408944284
 21
33.52394020802108
 31
0.0
  0
LINE
  5
2A7C
330
A
100
AcDbEntity
  8
001
  6
Continuous
370
     0
100
AcDbLine
 10
-111.0522408944284
 20
33.51769020802108
 30
0.0
 11
-111.0522408944284
 21
33.51644020802108
 31
0.0
  0
LINE
  5
2A7D
330
A
100
AcDbEntity
  8
001
  6
Continuous
370
     0
100
AcDbLine
 10
-111.0459908944284
 20
33.52394020802108
 30
0.0
 11
-111.0447408944284
 21
33.52394020802108
 31
0.0
  0
LINE
  5
2A7E
330
A
100
AcDbEntity
  8
001
  6
Continuous
370
     0
100
AcDbLine
 10
-111.0105533944284
 20
33.57612770802109
 30
0.0
 11
-111.0105533944284
 21
33.57925270802109
 31
0.0
  0
LINE
  5
2A7F
330
A
100
AcDbEntity
  8
001
  6
Continuous
370
     0
100
AcDbLine
 10
-111.0105533944284
 20
33.57612770802109
 30
0.0
 11
-111.0136783944284
 21
33.57612770802109
 31
0.0
  0
LINE
  5
2A80
330
A
100
AcDbEntity
  8
001
  6
Continuous
370
     0
100
AcDbLine
 10
-111.0105533944284
 20
33.57612770802109
 30
0.0
 11
-111.0105533944284
 21
33.57300270802108
 31
0.0
  0
LINE
  5
2A81
330
A
100
AcDbEntity
  8
001
  6
Continuous
370
     0
100
AcDbLine
 10
-111.0105533944284
 20
33.57612770802109
 30
0.0
 11
-111.0074283944284
 21
33.57612770802109
 31
0.0
  0
LINE
  5
2A82
330
A
100
AcDbEntity
  8
001
  6
Continuous
370
     0
100
AcDbLine
 10
-111.0105533944284
 20
33.58237770802108
 30
0.0
 11
-111.0105533944284
 21
33.58362770802109
 31
0.0
  0
LINE
  5
2A83
330
A
100
AcDbEntity
  8
001
  6
Continuous
370
     0
100
AcDbLine
 10
-111.0168033944284
 20
33.57612770802109
 30
0.0
 11
-111.0180533944284
 21
33.57612770802109
 31
0.0
  0
LINE
  5
2A84
330
A
100
AcDbEntity
  8
001
  6
Continuous
370
     0
100
AcDbLine
 10
-111.0105533944284
 20
33.56987770802108
 30
0.0
 11
-111.0105533944284
 21
33.56862770802109
 31
0.0
  0
LINE
  5
2A85
330
A
100
AcDbEntity
  8
001
  6
Continuous
370
     0
100
AcDbLine
 10
-111.0043033944284
 20
33.57612770802109
 30
0.0
 11
-111.0030533944284
 21
33.57612770802109
 31
0.0
  0
LINE
  5
2A86
330
A
100
AcDbEntity
  8
001
  6
Continuous
370
     0
100
AcDbLine
 10
-111.0105533944284
 20
33.52394020802108
 30
0.0
 11
-111.0105533944284
 21
33.52706520802108
 31
0.0
  0
LINE
  5
2A87
330
A
100
AcDbEntity
  8
001
  6
Continuous
370
     0
100
AcDbLine
 10
-111.0105533944284
 20
33.52394020802108
 30
0.0
 11
-111.0136783944284
 21
33.52394020802108
 31
0.0
  0
LINE
  5
2A88
330
A
100
AcDbEntity
  8
001
  6
Continuous
370
     0
100
AcDbLine
 10
-111.0105533944284
 20
33.52394020802108
 30
0.0
 11
-111.0105533944284
 21
33.52081520802109
 31
0.0
  0
LINE
  5
2A89
330
A
100
AcDbEntity
  8
001
  6
Continuous
370
     0
100
AcDbLine
 10
-111.0105533944284
 20
33.52394020802108
 30
0.0
 11
-111.0074283944284
 21
33.52394020802108
 31
0.0
  0
LINE
  5
2A8A
330
A
100
AcDbEntity
  8
001
  6
Continuous
370
     0
100
AcDbLine
 10
-111.0105533944284
 20
33.53019020802109
 30
0.0
 11
-111.0105533944284
 21
33.79097904859333
 31
0.0
  0
LINE
  5
2A8B
330
A
100
AcDbEntity
  8
001
  6
Continuous
370
     0
100
AcDbLine
 10
-111.0168033944284
 20
33.52394020802108
 30
0.0
 11
-111.0886783944284
 21
33.52394020802108
 31
0.0
  0
LINE
  5
2A8C
330
A
100
AcDbEntity
  8
001
  6
Continuous
370
     0
100
AcDbLine
 10
-111.0105533944284
 20
33.51769020802108
 30
0.0
 11
-111.0105533944284
 21
33.44581520802108
 31
0.0
  0
LINE
  5
2A8D
330
A
100
AcDbEntity
  8
001
  6
Continuous
370
     0
100
AcDbLine
 10
-111.0043033944284
 20
33.52394020802108
 30
0.0
 11
-110.9324283944284
 21
33.52394020802108
 31
0.0
  0
LINE
  5
2A8E
330
A
100
AcDbEntity
  8
001
  6
Continuous
370
     0
100
AcDbLine
 10
-111.0199283944284
 20
33.65747145802108
 30
0.0
 11
-111.0199283944284
 21
33.66697957197234
 31
0.0
  0
LINE
  5
2A8F
330
A
100
AcDbEntity
  8
001
  6
Continuous
370
     0
100
AcDbLine
 10
-111.0011783944284
 20
33.65747145802108
 30
0.0
 11
-111.0011783944284
 21
33.66697957197234
 31
0.0
  0
LINE
  5
2A98
330
A
100
AcDbEntity
  8
001
  6
Continuous
370
     0
100
AcDbLine
 10
-111.0107783944284
 20
33.57612770802109
 30
0.0
 11
-111.0103283944284
 21
33.57612770802109
 31
0.0
  0
LINE
  5
2A99
330
A
100
AcDbEntity
  8
001
  6
Continuous
370
     0
100
AcDbLine
 10
-111.0105533944284
 20
33.57590270802109
 30
0.0
 11
-111.0105533944284
 21
33.57635270802109
 31
0.0
  0
LINE
  5
2A9A
330
A
100
AcDbEntity
  8
001
  6
Continuous
370
     0
100
AcDbLine
 10
-111.0103971444284
 20
33.64794020802109
 30
0.0
 11
-110.9105533944284
 21
33.64794020802109
 31
0.0
  0
LINE
  5
2A9B
330
A
100
AcDbEntity
  8
001
  6
Continuous
370
     0
100
AcDbLine
 10
-110.9322721444284
 20
33.52394020802108
 30
0.0
 11
-110.8924404911134
 21
33.52394020802108
 31
0.0
  0
LINE
  5
2AA0
330
A
100
AcDbEntity
  8
001
  6
Continuous
370
     0
100
AcDbLine
 10
-111.0103971444284
 20
33.69294020802108
 30
0.0
 11
-110.8924404911134
 21
33.69294020802108
 31
0.0
  0
LINE
  5
2AA1
330
A
100
AcDbEntity
  8
001
  6
Continuous
370
     0
100
AcDbLine
 10
-111.0103971444284
 20
33.64794020802109
 30
0.0
 11
-110.8924404911134
 21
33.64794020802109
 31
0.0
  0
LINE
  5
2AA6
330
A
100
AcDbEntity
  8
001
  6
Continuous
370
     0
100
AcDbLine
 10
-111.0182096444284
 20
33.57612770802109
 30
0.0
 11
-111.1001162489744
 21
33.57612770802109
 31
0.0
  0
LINE
  5
2AA7
330
A
100
AcDbEntity
  8
001
  6
Continuous
370
     0
100
AcDbLine
 10
-111.0182096444284
 20
33.47175270802108
 30
0.0
 11
-111.1001162489744
 21
33.47175270802108
 31
0.0
  0
LINE
  5
2AAC
330
A
100
AcDbEntity
  8
001
  6
Continuous
370
     0
100
AcDbLine
 10
-111.0855533944284
 20
33.52378395802108
 30
0.0
 11
-111.0855533944284
 21
33.3443453603588
 31
0.0
  0
LINE
  5
2AAD
330
A
100
AcDbEntity
  8
001
  6
Continuous
370
     0
100
AcDbLine
 10
-110.9355533944284
 20
33.52378395802108
 30
0.0
 11
-110.9355533944284
 21
33.3443453603588
 31
0.0
  0
LINE
  5
2AB2
330
A
100
AcDbEntity
  8
001
  6
Continuous
370
     0
100
AcDbLine
 10
-111.0522408944284
 20
33.51628395802109
 30
0.0
 11
-111.0522408944284
 21
33.39063391208936
 31
0.0
  0
LINE
  5
2AB3
330
A
100
AcDbEntity
  8
001
  6
Continuous
370
     0
100
AcDbLine
 10
-110.9688658944284
 20
33.51628395802109
 30
0.0
 11
-110.9688658944284
 21
33.39063391208936
 31
0.0
  0
LINE
  5
2AB8
330
A
100
AcDbEntity
  8
001
  6
Continuous
370
     0
100
AcDbLine
 10
-111.0106638798629
 20
33.52405069345564
 30
0.0
 11
-111.0400839378158
 21
33.55347075140846
 31
0.0
  0
LINE
  5
2AB9
330
A
100
AcDbEntity
  8
001
  6
Continuous
370
     0
100
AcDbLine
 10
-111.0591463301567
 20
33.4982869317249
 30
0.0
 11
-111.077207043828
 21
33.51634764539621
 31
0.0
  0
LINE
  5
2ABE
330
A
100
AcDbEntity
  8
001
  6
Continuous
370
     0
100
AcDbLine
 10
-111.0565001612467
 20
33.47799344120277
 30
0.0
 11
-111.0605118448293
 21
33.47398175762023
 31
0.0
  0
ARC
  5
2ABF
330
A
100
AcDbEntity
  8
001
  6
Continuous
370
     0
100
AcDbCircle
 10
-111.0105533944284
 20
33.52394020802108
 30
0.0
 40
0.0706519181120287
100
AcDbArc
 50
231.0850487816565
 51
263.8868554615561
  0
LINE
  5
2AC3
330
A
100
AcDbEntity
  8
001
  6
Continuous
370
    15
100
AcDbLine
 10
-111.0507263708701
 20
33.49340250634358
 30
0.0
 11
-111.0508581204181
 21
33.49353425821984
 31
0.0
  0
LINE
  5
2AC4
330
A
100
AcDbEntity
  8
001
  6
Continuous
370
    15
100
AcDbLine
 10
-111.0508581204181
 20
33.49353425821984
 30
0.0
 11
-111.0510043985984
 21
33.49368053640008
 31
0.0
  0
LINE
  5
2AC5
330
A
100
AcDbEntity
  8
001
  6
Continuous
370
    15
100
AcDbLine
 10
-111.0510043985984
 20
33.49368053640008
 30
0.0
 11
-111.0511634684941
 21
33.49383960163908
 31
0.0
  0
LINE
  5
2AC6
330
A
100
AcDbEntity
  8
001
  6
Continuous
370
    15
100
AcDbLine
 10
-111.0511634684941
 20
33.49383960163908
 30
0.0
 11
-111.0513334302074
 21
33.49400956568058
 31
0.0
  0
LINE
  5
2AC7
330
A
100
AcDbEntity
  8
001
  6
Continuous
370
    15
100
AcDbLine
 10
-111.0513334302074
 20
33.49400956568058
 30
0.0
 11
-111.0515122720814
 21
33.49418840755459
 31
0.0
  0
LINE
  5
2AC8
330
A
100
AcDbEntity
  8
001
  6
Continuous
370
    15
100
AcDbLine
 10
-111.0515122720814
 20
33.49418840755459
 30
0.0
 11
-111.0516978660439
 21
33.49437400151733
 31
0.0
  0
LINE
  5
2AC9
330
A
100
AcDbEntity
  8
001
  6
Continuous
370
    15
100
AcDbLine
 10
-111.0516978660439
 20
33.49437400151733
 30
0.0
 11
-111.0518880048609
 21
33.49456414266259
 31
0.0
  0
LINE
  5
2ACA
330
A
100
AcDbEntity
  8
001
  6
Continuous
370
    15
100
AcDbLine
 10
-111.0518880048609
 20
33.49456414266259
 30
0.0
 11
-111.0520804347311
 21
33.49475657020458
 31
0.0
  0
LINE
  5
2ACB
330
A
100
AcDbEntity
  8
001
  6
Continuous
370
    15
100
AcDbLine
 10
-111.0556159680551
 20
33.49122103688058
 30
0.0
 11
-111.0554235428414
 21
33.49102860933858
 31
0.0
  0
LINE
  5
2ACC
330
A
100
AcDbEntity
  8
001
  6
Continuous
370
    15
100
AcDbLine
 10
-111.0554235428414
 20
33.49102860933858
 30
0.0
 11
-111.0552333993679
 21
33.49083846819334
 31
0.0
  0
LINE
  5
2ACD
330
A
100
AcDbEntity
  8
001
  6
Continuous
370
    15
100
AcDbLine
 10
-111.0552333993679
 20
33.49083846819334
 30
0.0
 11
-111.0550478054051
 21
33.49065287423083
 31
0.0
  0
LINE
  5
2ACE
330
A
100
AcDbEntity
  8
001
  6
Continuous
370
    15
100
AcDbLine
 10
-111.0550478054051
 20
33.49065287423083
 30
0.0
 11
-111.0548689635311
 21
33.49047403235683
 31
0.0
  0
LINE
  5
2ACF
330
A
100
AcDbEntity
  8
001
  6
Continuous
370
    15
100
AcDbLine
 10
-111.0548689635311
 20
33.49047403235683
 30
0.0
 11
-111.0546990018179
 21
33.49030406831534
 31
0.0
  0
LINE
  5
2AD0
330
A
100
AcDbEntity
  8
001
  6
Continuous
370
    15
100
AcDbLine
 10
-111.0546990018179
 20
33.49030406831534
 30
0.0
 11
-111.0545399365789
 21
33.49014500307609
 31
0.0
  0
LINE
  5
2AD1
330
A
100
AcDbEntity
  8
001
  6
Continuous
370
    15
100
AcDbLine
 10
-111.0545399365789
 20
33.49014500307609
 30
0.0
 11
-111.0543936583986
 21
33.48999872489584
 31
0.0
  0
LINE
  5
2AD2
330
A
100
AcDbEntity
  8
001
  6
Continuous
370
    15
100
AcDbLine
 10
-111.0543936583986
 20
33.48999872489584
 30
0.0
 11
-111.0542619041939
 21
33.48986697301958
 31
0.0
  0
LINE
  5
2AD3
330
A
100
AcDbEntity
  8
001
  6
Continuous
370
    15
100
AcDbLine
 10
-111.0397370322449
 20
33.48241316771833
 30
0.0
 11
-111.0399294597869
 21
33.48260559758859
 31
0.0
  0
LINE
  5
2AD4
330
A
100
AcDbEntity
  8
001
  6
Continuous
370
    15
100
AcDbLine
 10
-111.0399294597869
 20
33.48260559758859
 30
0.0
 11
-111.0401196009321
 21
33.48279573640533
 31
0.0
  0
LINE
  5
2AD5
330
A
100
AcDbEntity
  8
001
  6
Continuous
370
    15
100
AcDbLine
 10
-111.0401196009321
 20
33.48279573640533
 30
0.0
 11
-111.0403051948946
 21
33.48298133036809
 31
0.0
  0
LINE
  5
2AD6
330
A
100
AcDbEntity
  8
001
  6
Continuous
370
    15
100
AcDbLine
 10
-111.0403051948946
 20
33.48298133036809
 30
0.0
 11
-111.0404840367686
 21
33.48316017224208
 31
0.0
  0
LINE
  5
2AD7
330
A
100
AcDbEntity
  8
001
  6
Continuous
370
    15
100
AcDbLine
 10
-111.0404840367686
 20
33.48316017224208
 30
0.0
 11
-111.0406540008104
 21
33.48333013395534
 31
0.0
  0
LINE
  5
2AD8
330
A
100
AcDbEntity
  8
001
  6
Continuous
370
    15
100
AcDbLine
 10
-111.0406540008104
 20
33.48333013395534
 30
0.0
 11
-111.0408130660494
 21
33.48348920385108
 31
0.0
  0
LINE
  5
2AD9
330
A
100
AcDbEntity
  8
001
  6
Continuous
370
    15
100
AcDbLine
 10
-111.0408130660494
 20
33.48348920385108
 30
0.0
 11
-111.0409593442296
 21
33.48363548203133
 31
0.0
  0
LINE
  5
2ADA
330
A
100
AcDbEntity
  8
001
  6
Continuous
370
    15
100
AcDbLine
 10
-111.0409593442296
 20
33.48363548203133
 30
0.0
 11
-111.0410910961059
 21
33.48376723157933
 31
0.0
  0
LINE
  5
2ADB
330
A
100
AcDbEntity
  8
001
  6
Continuous
370
    15
100
AcDbLine
 10
-111.0446266294299
 20
33.48023169825534
 30
0.0
 11
-111.0444948775534
 21
33.48009994405083
 31
0.0
  0
LINE
  5
2ADC
330
A
100
AcDbEntity
  8
001
  6
Continuous
370
    15
100
AcDbLine
 10
-111.0444948775534
 20
33.48009994405083
 30
0.0
 11
-111.0443485993734
 21
33.47995366587058
 31
0.0
  0
LINE
  5
2ADD
330
A
100
AcDbEntity
  8
001
  6
Continuous
370
    15
100
AcDbLine
 10
-111.0443485993734
 20
33.47995366587058
 30
0.0
 11
-111.0441895341341
 21
33.47979460063158
 31
0.0
  0
LINE
  5
2ADE
330
A
100
AcDbEntity
  8
001
  6
Continuous
370
    15
100
AcDbLine
 10
-111.0441895341341
 20
33.47979460063158
 30
0.0
 11
-111.0440195700926
 21
33.47962463891834
 31
0.0
  0
LINE
  5
2ADF
330
A
100
AcDbEntity
  8
001
  6
Continuous
370
    15
100
AcDbLine
 10
-111.0440195700926
 20
33.47962463891834
 30
0.0
 11
-111.0438407282186
 21
33.47944579704433
 31
0.0
  0
LINE
  5
2AE0
330
A
100
AcDbEntity
  8
001
  6
Continuous
370
    15
100
AcDbLine
 10
-111.0438407282186
 20
33.47944579704433
 30
0.0
 11
-111.0436551342559
 21
33.47926020308158
 31
0.0
  0
LINE
  5
2AE1
330
A
100
AcDbEntity
  8
001
  6
Continuous
370
    15
100
AcDbLine
 10
-111.0436551342559
 20
33.47926020308158
 30
0.0
 11
-111.0434649931109
 21
33.47907005960809
 31
0.0
  0
LINE
  5
2AE2
330
A
100
AcDbEntity
  8
001
  6
Continuous
370
    15
100
AcDbLine
 10
-111.0434649931109
 20
33.47907005960809
 30
0.0
 11
-111.0432725655686
 21
33.47887763439433
 31
0.0
  0
LINE
  5
2AE6
330
A
100
AcDbEntity
  8
001
  6
Continuous
370
     0
100
AcDbLine
 10
-111.5333414370701
 20
33.77997145802108
 30
0.0
 11
-111.5333414370701
 21
33.81119069544608
 31
0.0
  0
LINE
  5
2AE7
330
A
100
AcDbEntity
  8
001
  6
Continuous
370
     0
100
AcDbLine
 10
-111.4958414370701
 20
33.77997145802108
 30
0.0
 11
-111.4958414370701
 21
33.81119069544608
 31
0.0
  0
LINE
  5
2AEC
330
A
100
AcDbEntity
  8
001
  6
Continuous
370
     0
100
AcDbLine
 10
-111.4941434798511
 20
33.77881520802108
 30
0.0
 11
-111.1870889263864
 21
33.77881520802108
 31
0.0
  0
LINE
  5
2AED
330
A
100
AcDbEntity
  8
001
  6
Continuous
370
     0
100
AcDbLine
 10
-111.2049634122984
 20
33.52394020802108
 30
0.0
 11
-111.1870889263864
 21
33.52394020802108
 31
0.0
  0
LINE
  5
2AF2
330
A
100
AcDbEntity
  8
001
  6
Continuous
370
     0
100
AcDbLine
 10
-111.2120914370701
 20
33.55949592966884
 30
0.0
 11
-111.2120914370701
 21
33.42394020802109
 31
0.0
  0
LINE
  5
2AF3
330
A
100
AcDbEntity
  8
001
  6
Continuous
370
     0
100
AcDbLine
 10
-111.5145914370701
 20
33.62690895802109
 30
0.0
 11
-111.5145914370701
 21
33.42394020802109
 31
0.0
  0
LINE
  5
2AF8
330
A
100
AcDbEntity
  8
001
  6
Continuous
370
    15
100
AcDbLine
 10
-111.2180629239551
 20
33.48194271011958
 30
0.0
 11
-111.2180842314514
 21
33.48199240083558
 31
0.0
  0
LINE
  5
2AF9
330
A
100
AcDbEntity
  8
001
  6
Continuous
370
    15
100
AcDbLine
 10
-111.2180842314514
 20
33.48199240083558
 30
0.0
 11
-111.2180914369779
 21
33.48204413114808
 31
0.0
  0
LINE
  5
2AFA
330
A
100
AcDbEntity
  8
001
  6
Continuous
370
    15
100
AcDbLine
 10
-111.5486195061489
 20
33.68516641354883
 30
0.0
 11
-111.5490145731852
 21
33.68521016708334
 31
0.0
  0
LINE
  5
2AFB
330
A
100
AcDbEntity
  8
001
  6
Continuous
370
    15
100
AcDbLine
 10
-111.5490145731852
 20
33.68521016708334
 30
0.0
 11
-111.5492674831434
 21
33.68525842821908
 31
0.0
  0
LINE
  5
2AFC
330
A
100
AcDbEntity
  8
001
  6
Continuous
370
    15
100
AcDbLine
 10
-111.5492674831434
 20
33.68525842821908
 30
0.0
 11
-111.5494012955709
 21
33.68529305479258
 31
0.0
  0
LINE
  5
2AFD
330
A
100
AcDbEntity
  8
001
  6
Continuous
370
    15
100
AcDbLine
 10
-111.5494012955709
 20
33.68529305479258
 30
0.0
 11
-111.5494325507566
 21
33.68530238664458
 31
0.0
  0
LINE
  5
2AFE
330
A
100
AcDbEntity
  8
001
  6
Continuous
370
    15
100
AcDbLine
 10
-111.5494325507566
 20
33.68530238664458
 30
0.0
 11
-111.5494404483719
 21
33.68530482670983
 31
0.0
  0
LINE
  5
2AFF
330
A
100
AcDbEntity
  8
001
  6
Continuous
370
    15
100
AcDbLine
 10
-111.5494404483719
 20
33.68530482670983
 30
0.0
 11
-111.5494424972816
 21
33.68530547863559
 31
0.0
  0
LINE
  5
2B00
330
A
100
AcDbEntity
  8
001
  6
Continuous
370
    15
100
AcDbLine
 10
-111.5494424972816
 20
33.68530547863559
 30
0.0
 11
-111.5494432795926
 21
33.68530570215308
 31
0.0
  0
LINE
  5
2B01
330
A
100
AcDbEntity
  8
001
  6
Continuous
370
    15
100
AcDbLine
 10
-111.5494432795926
 20
33.68530570215308
 30
0.0
 11
-111.5494433540984
 21
33.68530573940584
 31
0.0
  0
LINE
  5
2B02
330
A
100
AcDbEntity
  8
001
  6
Continuous
370
    15
100
AcDbLine
 10
-111.5494433540984
 20
33.68530573940584
 30
0.0
 11
-111.5494433540984
 21
33.68530573940584
 31
0.0
  0
LINE
  5
2B03
330
A
100
AcDbEntity
  8
001
  6
Continuous
370
    15
100
AcDbLine
 10
-111.5494433540984
 20
33.68530573940584
 30
0.0
 11
-111.5494433913514
 21
33.68530573940584
 31
0.0
  0
LINE
  5
2B04
330
A
100
AcDbEntity
  8
001
  6
Continuous
370
    15
100
AcDbLine
 10
-111.5494433913514
 20
33.68530573940584
 30
0.0
 11
-111.5494433913514
 21
33.68530575803233
 31
0.0
  0
LINE
  5
2B05
330
A
100
AcDbEntity
  8
001
  6
Continuous
370
    15
100
AcDbLine
 10
-111.5494433913514
 20
33.68530575803233
 30
0.0
 11
-111.5494434286042
 21
33.68530575803233
 31
0.0
  0
LINE
  5
2B06
330
A
100
AcDbEntity
  8
001
  6
Continuous
370
    15
100
AcDbLine
 10
-111.5494434286042
 20
33.68530575803233
 30
0.0
 11
-111.5494435031101
 21
33.68530577665883
 31
0.0
  0
LINE
  5
2B07
330
A
100
AcDbEntity
  8
001
  6
Continuous
370
    15
100
AcDbLine
 10
-111.5494435031101
 20
33.68530577665883
 30
0.0
 11
-111.5494436148689
 21
33.68530583253809
 31
0.0
  0
LINE
  5
2B08
330
A
100
AcDbEntity
  8
001
  6
Continuous
370
    15
100
AcDbLine
 10
-111.5494436148689
 20
33.68530583253809
 30
0.0
 11
-111.5494439128919
 21
33.68530590704409
 31
0.0
  0
LINE
  5
2B09
330
A
100
AcDbEntity
  8
001
  6
Continuous
370
    15
100
AcDbLine
 10
-111.5494439128919
 20
33.68530590704409
 30
0.0
 11
-111.5494444344326
 21
33.68530607468208
 31
0.0
  0
LINE
  5
2B0A
330
A
100
AcDbEntity
  8
001
  6
Continuous
370
    15
100
AcDbLine
 10
-111.5494444344326
 20
33.68530607468208
 30
0.0
 11
-111.5494455147669
 21
33.68530642858459
 31
0.0
  0
LINE
  5
2B0B
330
A
100
AcDbEntity
  8
001
  6
Continuous
370
    15
100
AcDbLine
 10
-111.5494455147669
 20
33.68530642858459
 30
0.0
 11
-111.5494476754351
 21
33.68530709913683
 31
0.0
  0
LINE
  5
2B0C
330
A
100
AcDbEntity
  8
001
  6
Continuous
370
    15
100
AcDbLine
 10
-111.5494476754351
 20
33.68530709913683
 30
0.0
 11
-111.5494519222661
 21
33.68530845886783
 31
0.0
  0
LINE
  5
2B0D
330
A
100
AcDbEntity
  8
001
  6
Continuous
370
    15
100
AcDbLine
 10
-111.5494519222661
 20
33.68530845886783
 30
0.0
 11
-111.5494602296634
 21
33.68531114107684
 31
0.0
  0
LINE
  5
2B0E
330
A
100
AcDbEntity
  8
001
  6
Continuous
370
    15
100
AcDbLine
 10
-111.5494602296634
 20
33.68531114107684
 30
0.0
 11
-111.5494762856646
 21
33.68531644961559
 31
0.0
  0
LINE
  5
2B0F
330
A
100
AcDbEntity
  8
001
  6
Continuous
370
    15
100
AcDbLine
 10
-111.5494762856646
 20
33.68531644961559
 30
0.0
 11
-111.5495060134814
 21
33.68532678729609
 31
0.0
  0
LINE
  5
2B10
330
A
100
AcDbEntity
  8
001
  6
Continuous
370
    15
100
AcDbLine
 10
-111.5495060134814
 20
33.68532678729609
 30
0.0
 11
-111.5495565656706
 21
33.68534610292634
 31
0.0
  0
LINE
  5
2B11
330
A
100
AcDbEntity
  8
001
  6
Continuous
370
    15
100
AcDbLine
 10
-111.5495565656706
 20
33.68534610292634
 30
0.0
 11
-111.5496277932211
 21
33.68537856883134
 31
0.0
  0
LINE
  5
2B12
330
A
100
AcDbEntity
  8
001
  6
Continuous
370
    15
100
AcDbLine
 10
-111.5496277932211
 20
33.68537856883134
 30
0.0
 11
-111.5496686224029
 21
33.68540155387234
 31
0.0
  0
LINE
  5
2B13
330
A
100
AcDbEntity
  8
001
  6
Continuous
370
    15
100
AcDbLine
 10
-111.5496686224029
 20
33.68540155387234
 30
0.0
 11
-111.5496878449006
 21
33.68541414535359
 31
0.0
  0
LINE
  5
2B14
330
A
100
AcDbEntity
  8
001
  6
Continuous
370
    15
100
AcDbLine
 10
-111.5496878449006
 20
33.68541414535359
 30
0.0
 11
-111.5496878449006
 21
33.68541414535359
 31
0.0
  0
LINE
  5
2B15
330
A
100
AcDbEntity
  8
001
  6
Continuous
370
    15
100
AcDbLine
 10
-111.5496878449006
 20
33.68541414535359
 30
0.0
 11
-111.5496878449006
 21
33.68541416398009
 31
0.0
  0
LINE
  5
2B16
330
A
100
AcDbEntity
  8
001
  6
Continuous
370
    15
100
AcDbLine
 10
-111.5496878449006
 20
33.68541416398009
 30
0.0
 11
-111.5496878821536
 21
33.68541416398009
 31
0.0
  0
LINE
  5
2B17
330
A
100
AcDbEntity
  8
001
  6
Continuous
370
    15
100
AcDbLine
 10
-111.5496878821536
 20
33.68541416398009
 30
0.0
 11
-111.5496878821536
 21
33.68541418260658
 31
0.0
  0
LINE
  5
2B18
330
A
100
AcDbEntity
  8
001
  6
Continuous
370
    15
100
AcDbLine
 10
-111.5496878821536
 20
33.68541418260658
 30
0.0
 11
-111.5496879566594
 21
33.68541421985934
 31
0.0
  0
LINE
  5
2B19
330
A
100
AcDbEntity
  8
001
  6
Continuous
370
    15
100
AcDbLine
 10
-111.5496879566594
 20
33.68541421985934
 30
0.0
 11
-111.5496880311651
 21
33.68541429436533
 31
0.0
  0
LINE
  5
2B1A
330
A
100
AcDbEntity
  8
001
  6
Continuous
370
    15
100
AcDbLine
 10
-111.5496880311651
 20
33.68541429436533
 30
0.0
 11
-111.5496882546826
 21
33.68541442475034
 31
0.0
  0
LINE
  5
2B1B
330
A
100
AcDbEntity
  8
001
  6
Continuous
370
    15
100
AcDbLine
 10
-111.5496882546826
 20
33.68541442475034
 30
0.0
 11
-111.5496886644646
 21
33.68541470414708
 31
0.0
  0
LINE
  5
2B1C
330
A
100
AcDbEntity
  8
001
  6
Continuous
370
    15
100
AcDbLine
 10
-111.5496886644646
 20
33.68541470414708
 30
0.0
 11
-111.5496894467756
 21
33.68541526294083
 31
0.0
  0
LINE
  5
2B1D
330
A
100
AcDbEntity
  8
001
  6
Continuous
370
    15
100
AcDbLine
 10
-111.5496894467756
 20
33.68541526294083
 30
0.0
 11
-111.5496910486504
 21
33.68541639915434
 31
0.0
  0
LINE
  5
2B1E
330
A
100
AcDbEntity
  8
001
  6
Continuous
370
    15
100
AcDbLine
 10
-111.5496910486504
 20
33.68541639915434
 30
0.0
 11
-111.5496941406414
 21
33.68541861570209
 31
0.0
  0
LINE
  5
2B1F
330
A
100
AcDbEntity
  8
001
  6
Continuous
370
    15
100
AcDbLine
 10
-111.5496941406414
 20
33.68541861570209
 30
0.0
 11
-111.5497000638529
 21
33.68542297429159
 31
0.0
  0
LINE
  5
2B20
330
A
100
AcDbEntity
  8
001
  6
Continuous
370
    15
100
AcDbLine
 10
-111.5497000638529
 20
33.68542297429159
 30
0.0
 11
-111.5497107554361
 21
33.68543137482134
 31
0.0
  0
LINE
  5
2B21
330
A
100
AcDbEntity
  8
001
  6
Continuous
370
    15
100
AcDbLine
 10
-111.5497107554361
 20
33.68543137482134
 30
0.0
 11
-111.5497280780359
 21
33.68544690928183
 31
0.0
  0
LINE
  5
2B22
330
A
100
AcDbEntity
  8
001
  6
Continuous
370
    15
100
AcDbLine
 10
-111.5497280780359
 20
33.68544690928183
 30
0.0
 11
-111.5497500199959
 21
33.68547253927909
 31
0.0
  0
LINE
  5
2B23
330
A
100
AcDbEntity
  8
001
  6
Continuous
370
    15
100
AcDbLine
 10
-111.5497500199959
 20
33.68547253927909
 30
0.0
 11
-111.5497689817234
 21
33.68553065380758
 31
0.0
  0
LINE
  5
2B24
330
A
100
AcDbEntity
  8
001
  6
Continuous
370
    15
100
AcDbLine
 10
-111.5497689817234
 20
33.68553065380758
 30
0.0
 11
-111.5497689444706
 21
33.68553141749233
 31
0.0
  0
LINE
  5
2B25
330
A
100
AcDbEntity
  8
001
  6
Continuous
370
    15
100
AcDbLine
 10
-111.5497689444706
 20
33.68553141749233
 30
0.0
 11
-111.5497689444706
 21
33.68553162238308
 31
0.0
  0
LINE
  5
2B26
330
A
100
AcDbEntity
  8
001
  6
Continuous
370
    15
100
AcDbLine
 10
-111.5497689444706
 20
33.68553162238308
 30
0.0
 11
-111.5497689444706
 21
33.68553165963609
 31
0.0
  0
LINE
  5
2B27
330
A
100
AcDbEntity
  8
001
  6
Continuous
370
    15
100
AcDbLine
 10
-111.5497689444706
 20
33.68553165963609
 30
0.0
 11
-111.5497689072176
 21
33.68553167826258
 31
0.0
  0
LINE
  5
2B28
330
A
100
AcDbEntity
  8
001
  6
Continuous
370
    15
100
AcDbLine
 10
-111.5497689072176
 20
33.68553167826258
 30
0.0
 11
-111.5497689072176
 21
33.68553167826258
 31
0.0
  0
LINE
  5
2B4A
330
A
100
AcDbEntity
  8
001
  6
ByBlock
370
    -2
100
AcDbLine
 10
-111.0605118448293
 20
33.47398175762023
 30
0.0
 11
-111.0549345355051
 21
33.46896741611783
 31
0.0
  0
LINE
  5
2B7B
330
A
100
AcDbEntity
  8
001
  6
ByBlock
370
    -2
100
AcDbLine
 10
-110.9936783944284
 20
33.65558259554116
 30
0.0
 11
-111.0011783944284
 21
33.65759221304116
 31
0.0
  0
LINE
  5
2B7C
330
A
100
AcDbEntity
  8
001
  6
ByBlock
370
    -2
100
AcDbLine
 10
-111.0011783944284
 20
33.65759221304116
 30
0.0
 11
-110.9936783944284
 21
33.65960183054117
 31
0.0
  0
LINE
  5
2B7D
330
A
100
AcDbEntity
  8
001
  6
ByBlock
370
    -2
100
AcDbLine
 10
-111.0011783944284
 20
33.65759221304116
 30
0.0
 11
-110.9447330864531
 21
33.65759221304116
 31
0.0
  0
LINE
  5
2B7E
330
A
100
AcDbEntity
  8
001
  6
ByBlock
370
    -2
100
AcDbLine
 10
-111.0274283944284
 20
33.65960183054117
 30
0.0
 11
-111.0199283944284
 21
33.65759221304116
 31
0.0
  0
LINE
  5
2B7F
330
A
100
AcDbEntity
  8
001
  6
ByBlock
370
    -2
100
AcDbLine
 10
-111.0199283944284
 20
33.65759221304116
 30
0.0
 11
-111.0274283944284
 21
33.65558259554116
 31
0.0
  0
LINE
  5
2B80
330
A
100
AcDbEntity
  8
001
  6
ByBlock
370
    -2
100
AcDbLine
 10
-111.0199283944284
 20
33.65759221304116
 30
0.0
 11
-111.033382978412
 21
33.65759221304116
 31
0.0
  0
TEXT
  5
2B83
330
A
100
AcDbEntity
  8
001
  6
Continuous
100
AcDbText
 10
-111.3846484692599
 20
33.43387863049489
 30
0.0
 40
0.0250053502430098
  1
242
 41
0.6
 72
     1
 11
-111.3646441890655
 21
33.43387863049489
 31
0.0
100
AcDbText
  0
LINE
  5
2B84
330
A
100
AcDbEntity
  8
001
100
AcDbLine
 10
-111.5145914370701
 20
33.42762755105677
 30
0.0
 11
-111.2120914370701
 21
33.42762755105677
 31
0.0
  0
LINE
  5
2B85
330
A
100
AcDbEntity
  8
001
100
AcDbLine
 10
-111.5145914370701
 20
33.42762755105677
 30
0.0
 11
-111.5047415268472
 21
33.42936396201181
 31
0.0
  0
LINE
  5
2B86
330
A
100
AcDbEntity
  8
001
100
AcDbLine
 10
-111.5145914370701
 20
33.42762755105677
 30
0.0
 11
-111.5047415268472
 21
33.42589114010175
 31
0.0
  0
LINE
  5
2B87
330
A
100
AcDbEntity
  8
001
100
AcDbLine
 10
-111.2120914370701
 20
33.42762755105677
 30
0.0
 11
-111.2219413472931
 21
33.42589114010174
 31
0.0
  0
LINE
  5
2B88
330
A
100
AcDbEntity
  8
001
100
AcDbLine
 10
-111.2120914370701
 20
33.42762755105677
 30
0.0
 11
-111.2219413472931
 21
33.42936396201181
 31
0.0
  0
LINE
  5
2B89
330
A
100
AcDbEntity
  8
001
100
AcDbLine
 10
-111.1907861539257
 20
33.52394020802108
 30
0.0
 11
-111.1891695553265
 21
33.53311007129686
 31
0.0
  0
LINE
  5
2B8A
330
A
100
AcDbEntity
  8
001
100
AcDbLine
 10
-111.1907861539257
 20
33.52394020802108
 30
0.0
 11
-111.1924035588084
 21
33.53311007129686
 31
0.0
  0
TEXT
  5
2B8B
330
A
100
AcDbEntity
  8
001
  6
Continuous
100
AcDbText
 10
-111.1600074052791
 20
33.62820202076814
 30
0.0
 40
0.0232799810762421
  1
204
 50
90.0
 41
0.6
 72
     1
 11
-111.1600074052791
 21
33.64566200657533
 31
0.0
100
AcDbText
  0
LINE
  5
2B8C
330
A
100
AcDbEntity
  8
001
100
AcDbLine
 10
-111.1907861539257
 20
33.77881520802108
 30
0.0
 11
-111.1924035588084
 21
33.7696453447453
 31
0.0
  0
LINE
  5
2B8D
330
A
100
AcDbEntity
  8
001
100
AcDbLine
 10
-111.1907861539257
 20
33.77881520802108
 30
0.0
 11
-111.1891695553265
 21
33.7696453447453
 31
0.0
  0
LINE
  5
2B8E
330
A
100
AcDbEntity
  8
001
100
AcDbLine
 10
-111.1907861539257
 20
33.52394020802108
 30
0.0
 11
-111.1907861539257
 21
33.77881520802108
 31
0.0
  0
LINE
  5
2B8F
330
A
100
AcDbEntity
  8
001
100
AcDbLine
 10
-111.5333414370701
 20
33.80798872536326
 30
0.0
 11
-111.5234915268472
 21
33.80625231440824
 31
0.0
  0
LINE
  5
2B90
330
A
100
AcDbEntity
  8
001
100
AcDbLine
 10
-111.5333414370701
 20
33.80798872536326
 30
0.0
 11
-111.5234915268472
 21
33.8097251363183
 31
0.0
  0
TEXT
  5
2B91
330
A
100
AcDbEntity
  8
001
  6
Continuous
100
AcDbText
 10
-111.5367505001939
 20
33.81423980480137
 30
0.0
 40
0.0250053502430098
  1
φ30
 41
0.6
 72
     1
 11
-111.5149958454825
 21
33.81423980480137
 31
0.0
100
AcDbText
  0
LINE
  5
2B92
330
A
100
AcDbEntity
  8
001
100
AcDbLine
 10
-111.5333414370701
 20
33.80798872536326
 30
0.0
 11
-111.4958414370701
 21
33.80798872536326
 31
0.0
  0
LINE
  5
2B93
330
A
100
AcDbEntity
  8
001
100
AcDbLine
 10
-111.4958414370701
 20
33.80798872536326
 30
0.0
 11
-111.5056913472931
 21
33.8097251363183
 31
0.0
  0
LINE
  5
2B94
330
A
100
AcDbEntity
  8
001
100
AcDbLine
 10
-111.4958414370701
 20
33.80798872536326
 30
0.0
 11
-111.5056913472931
 21
33.80625231440823
 31
0.0
  0
LINE
  5
2B95
330
A
100
AcDbEntity
  8
001
100
AcDbLine
 10
-111.5106414381549
 20
33.78250270767821
 30
0.0
 11
-111.5049043278034
 21
33.79069547395218
 31
0.0
  0
LINE
  5
2B96
330
A
100
AcDbEntity
  8
001
100
AcDbLine
 10
-111.5106414381549
 20
33.78250270767821
 30
0.0
 11
-111.5024486718809
 21
33.78823981802972
 31
0.0
  0
LINE
  5
2B97
330
A
100
AcDbEntity
  8
001
  6
ByBlock
370
    -2
100
AcDbLine
 10
-111.5106414381549
 20
33.78250270767821
 30
0.0
 11
-111.4780986129658
 21
33.81504553286728
 31
0.0
  0
LINE
  5
2B98
330
A
100
AcDbEntity
  8
001
  6
ByBlock
370
    -2
100
AcDbLine
 10
-111.4780986129658
 20
33.81504553286728
 30
0.0
 11
-111.3351321175008
 21
33.81504553286728
 31
0.0
  0
TEXT
  5
2B99
330
A
100
AcDbEntity
  8
001
  6
Continuous
100
AcDbText
 10
-111.4704808291458
 20
33.82129661230539
 30
0.0
 40
0.0250053502430098
  1
UNC1/4-20
 41
0.6
 72
     1
 11
-111.4092177210505
 21
33.82129661230539
 31
0.0
100
AcDbText
  0
LINE
  5
2B9E
330
A
100
AcDbEntity
  8
001
  6
ByBlock
370
    -2
100
AcDbLine
 10
-111.0562744728944
 20
33.46747535757242
 30
0.0
 11
-111.0605118448293
 21
33.47398175762023
 31
0.0
  0
LINE
  5
2B9F
330
A
100
AcDbEntity
  8
001
  6
ByBlock
370
    -2
100
AcDbLine
 10
-111.0605118448293
 20
33.47398175762023
 30
0.0
 11
-111.053588974327
 21
33.47046573337319
 31
0.0
  0
LINE
  5
2BA1
330
A
100
AcDbEntity
  8
001
  6
ByBlock
370
    -2
100
AcDbLine
 10
-111.0179325620018
 20
33.45569478641673
 30
0.0
 11
-111.0105514342726
 21
33.45328490759397
 31
0.0
  0
LINE
  5
2BA2
330
A
100
AcDbEntity
  8
001
  6
ByBlock
370
    -2
100
AcDbLine
 10
-111.0105514342726
 20
33.45328490759397
 30
0.0
 11
-111.018077271566
 21
33.45369004926165
 31
0.0
  0
LINE
  5
2BA3
330
A
100
AcDbEntity
  8
001
  6
ByBlock
370
    -2
100
AcDbLine
 10
-111.0105514342726
 20
33.45328490759397
 30
0.0
 11
-111.0181486183819
 21
33.45168136273788
 31
0.0
  0
TEXT
  5
2BA5
330
A
100
AcDbEntity
  8
001
  6
Continuous
100
AcDbText
 10
-111.0767571996428
 20
33.45547563688796
 30
0.0
 40
0.0232799810762421
  1
45.00°
 50
315.0
 41
0.6
 72
     1
 11
-111.0557571150585
 21
33.43447555230365
 31
0.0
100
AcDbText
  0
LINE
  5
2BA6
330
A
100
AcDbEntity
  8
001
100
AcDbLine
 10
-111.0522408944284
 20
33.39253165904143
 30
0.0
 11
-110.9688658944284
 21
33.39253165904143
 31
0.0
  0
TEXT
  5
2BA7
330
A
100
AcDbEntity
  8
001
  6
Continuous
100
AcDbText
 10
-111.0187028748181
 20
33.39878273847954
 30
0.0
 40
0.0250053502430098
  1
66.7
 41
0.6
 72
     1
 11
-110.9961980595994
 21
33.39878273847954
 31
0.0
100
AcDbText
  0
LINE
  5
2BA8
330
A
100
AcDbEntity
  8
001
100
AcDbLine
 10
-111.0522408944284
 20
33.39253165904143
 30
0.0
 11
-111.0423909842054
 21
33.3907952480864
 31
0.0
  0
LINE
  5
2BA9
330
A
100
AcDbEntity
  8
001
100
AcDbLine
 10
-111.0522408944284
 20
33.39253165904143
 30
0.0
 11
-111.0423909842054
 21
33.39426806999646
 31
0.0
  0
LINE
  5
2BAA
330
A
100
AcDbEntity
  8
001
100
AcDbLine
 10
-110.9688658944284
 20
33.39253165904143
 30
0.0
 11
-110.9787158046513
 21
33.39426806999646
 31
0.0
  0
LINE
  5
2BAB
330
A
100
AcDbEntity
  8
001
100
AcDbLine
 10
-110.9688658944284
 20
33.39253165904143
 30
0.0
 11
-110.9787158046513
 21
33.3907952480864
 31
0.0
  0
TEXT
  5
2BAD
330
A
100
AcDbEntity
  8
001
  6
Continuous
100
AcDbText
 10
-111.0385434003325
 20
33.35395698892031
 30
0.0
 40
0.0250053502430098
  1
φ120
 41
0.6
 72
     1
 11
-111.0117876755725
 21
33.35395698892031
 31
0.0
100
AcDbText
  0
LINE
  5
2BAE
330
A
100
AcDbEntity
  8
001
100
AcDbLine
 10
-111.0855533944284
 20
33.3477059094822
 30
0.0
 11
-110.9355533944284
 21
33.3477059094822
 31
0.0
  0
LINE
  5
2BAF
330
A
100
AcDbEntity
  8
001
100
AcDbLine
 10
-110.9355533944284
 20
33.3477059094822
 30
0.0
 11
-110.9454033046514
 21
33.34596949852717
 31
0.0
  0
LINE
  5
2BB0
330
A
100
AcDbEntity
  8
001
100
AcDbLine
 10
-110.9355533944284
 20
33.3477059094822
 30
0.0
 11
-110.9454033046514
 21
33.34944232043724
 31
0.0
  0
LINE
  5
2BB1
330
A
100
AcDbEntity
  8
001
100
AcDbLine
 10
-111.0855533944284
 20
33.3477059094822
 30
0.0
 11
-111.0757034842054
 21
33.34944232043724
 31
0.0
  0
LINE
  5
2BB2
330
A
100
AcDbEntity
  8
001
100
AcDbLine
 10
-111.0855533944284
 20
33.3477059094822
 30
0.0
 11
-111.0757034842054
 21
33.34596949852718
 31
0.0
  0
LINE
  5
2BB4
330
A
100
AcDbEntity
  8
001
100
AcDbLine
 10
-111.0945320178855
 20
33.47175270802109
 30
0.0
 11
-111.0929154192864
 21
33.48092257129687
 31
0.0
  0
LINE
  5
2BB5
330
A
100
AcDbEntity
  8
001
100
AcDbLine
 10
-111.0945320178855
 20
33.47175270802109
 30
0.0
 11
-111.0961494227682
 21
33.48092257129687
 31
0.0
  0
TEXT
  5
2BB6
330
A
100
AcDbEntity
  8
001
  6
Continuous
100
AcDbText
 10
-111.1013867350759
 20
33.50488274825647
 30
0.0
 40
0.0232799810762421
  1
83.5
 50
90.0
 41
0.6
 72
     1
 11
-111.1013867350759
 21
33.52583473122509
 31
0.0
100
AcDbText
  0
LINE
  5
2BB7
330
A
100
AcDbEntity
  8
001
100
AcDbLine
 10
-111.0945320178855
 20
33.57612770802109
 30
0.0
 11
-111.0961494227682
 21
33.5669578447453
 31
0.0
  0
LINE
  5
2BB8
330
A
100
AcDbEntity
  8
001
100
AcDbLine
 10
-111.0945320178855
 20
33.57612770802109
 30
0.0
 11
-111.0929154192864
 21
33.5669578447453
 31
0.0
  0
LINE
  5
2BB9
330
A
100
AcDbEntity
  8
001
100
AcDbLine
 10
-111.0945320178855
 20
33.47175270802109
 30
0.0
 11
-111.0945320178855
 21
33.57612770802109
 31
0.0
  0
LINE
  5
2BBA
330
A
100
AcDbEntity
  8
001
100
AcDbLine
 10
-110.8961377186527
 20
33.64794020802109
 30
0.0
 11
-110.8961377186527
 21
33.69294020802108
 31
0.0
  0
LINE
  5
2BBB
330
A
100
AcDbEntity
  8
001
100
AcDbLine
 10
-110.8961377186527
 20
33.69294020802108
 30
0.0
 11
-110.8945211200535
 21
33.6837703447453
 31
0.0
  0
LINE
  5
2BBC
330
A
100
AcDbEntity
  8
001
100
AcDbLine
 10
-110.8961377186527
 20
33.69294020802108
 30
0.0
 11
-110.8977551235354
 21
33.6837703447453
 31
0.0
  0
TEXT
  5
2BBD
330
A
100
AcDbEntity
  8
001
  6
Continuous
100
AcDbText
 10
-110.8653589700061
 20
33.65721236296387
 30
0.0
 40
0.0232799810762421
  1
36
 50
90.0
 41
0.6
 72
     1
 11
-110.8653589700061
 21
33.66885235350199
 31
0.0
100
AcDbText
  0
LINE
  5
2BBE
330
A
100
AcDbEntity
  8
001
100
AcDbLine
 10
-110.8961377186527
 20
33.64794020802109
 30
0.0
 11
-110.8977551235354
 21
33.65711007129687
 31
0.0
  0
LINE
  5
2BBF
330
A
100
AcDbEntity
  8
001
100
AcDbLine
 10
-110.8961377186527
 20
33.64794020802109
 30
0.0
 11
-110.8945211200535
 21
33.65711007129687
 31
0.0
  0
LINE
  5
2BC0
330
A
100
AcDbEntity
  8
001
100
AcDbLine
 10
-110.8961377186527
 20
33.52394020802108
 30
0.0
 11
-110.8945211200535
 21
33.53311007129686
 31
0.0
  0
LINE
  5
2BC1
330
A
100
AcDbEntity
  8
001
100
AcDbLine
 10
-110.8961377186527
 20
33.52394020802108
 30
0.0
 11
-110.8977551235354
 21
33.53311007129686
 31
0.0
  0
TEXT
  5
2BC2
330
A
100
AcDbEntity
  8
001
  6
Continuous
100
AcDbText
 10
-110.8653589700061
 20
33.57877828825737
 30
0.0
 40
0.0232799810762421
  1
99
 50
90.0
 41
0.6
 72
     1
 11
-110.8653589700061
 21
33.59041827879549
 31
0.0
100
AcDbText
  0
LINE
  5
2BC3
330
A
100
AcDbEntity
  8
001
100
AcDbLine
 10
-110.8961377186527
 20
33.64794020802109
 30
0.0
 11
-110.8977551235354
 21
33.6387703447453
 31
0.0
  0
LINE
  5
2BC4
330
A
100
AcDbEntity
  8
001
100
AcDbLine
 10
-110.8961377186527
 20
33.64794020802109
 30
0.0
 11
-110.8945211200535
 21
33.6387703447453
 31
0.0
  0
LINE
  5
2BC5
330
A
100
AcDbEntity
  8
001
100
AcDbLine
 10
-110.8961377186527
 20
33.52394020802108
 30
0.0
 11
-110.8961377186527
 21
33.64794020802109
 31
0.0
  0
TEXT
  5
2BC7
330
A
100
AcDbEntity
  8
001
  6
Continuous
100
AcDbText
 10
-110.9767998947023
 20
33.66384329247928
 30
0.0
 40
0.0250053502430098
  1
15
 41
0.6
 72
     1
 11
-110.9667977546051
 21
33.66384329247928
 31
0.0
100
AcDbText
  0
LINE
  5
2BC8
330
A
100
AcDbEntity
  8
001
  6
ByBlock
370
    -2
100
AcDbLine
 10
-110.9749821057245
 20
33.6118279108783
 30
0.0
 11
-110.9038549691998
 21
33.6118279108783
 31
0.0
  0
TEXT
  5
2BC9
330
A
100
AcDbEntity
  8
001
  6
Continuous
100
AcDbText
 10
-110.9693175628309
 20
33.61807899031641
 30
0.0
 40
0.0250053502430098
  1
4-φ7
 41
0.6
 72
     1
 11
-110.940311356549
 21
33.61807899031641
 31
0.0
100
AcDbText
  0
LINE
  5
2BCA
330
A
100
AcDbEntity
  8
001
100
AcDbLine
 10
-111.0075249309135
 20
33.57928508568923
 30
0.0
 11
-111.001787820562
 21
33.5874778519632
 31
0.0
  0
LINE
  5
2BCB
330
A
100
AcDbEntity
  8
001
100
AcDbLine
 10
-111.0075249309135
 20
33.57928508568923
 30
0.0
 11
-110.9993321646396
 21
33.58502219604074
 31
0.0
  0
LINE
  5
2BCC
330
A
100
AcDbEntity
  8
001
  6
ByBlock
370
    -2
100
AcDbLine
 10
-111.0075249309135
 20
33.57928508568923
 30
0.0
 11
-110.9749821057245
 21
33.6118279108783
 31
0.0
  0
LINE
  5
2BD4
330
A
100
AcDbEntity
  8
001
100
AcDbLine
 10
-111.0772070438279
 20
33.51634764539634
 30
0.0
 11
-111.0695792933625
 21
33.5216880399407
 31
0.0
  0
LINE
  5
2BD5
330
A
100
AcDbEntity
  8
001
100
AcDbLine
 10
-111.0772070438279
 20
33.51634764539634
 30
0.0
 11
-111.0718660791549
 21
33.5239748257331
 31
0.0
  0
LINE
  5
2BD6
330
A
100
AcDbEntity
  8
001
100
AcDbLine
 10
-111.0400839378158
 20
33.55347075140846
 30
0.0
 11
-111.0454243323601
 21
33.5458430009431
 31
0.0
  0
LINE
  5
2BD7
330
A
100
AcDbEntity
  8
001
100
AcDbLine
 10
-111.0772070438279
 20
33.51634764539634
 30
0.0
 11
-111.0400839378158
 21
33.55347075140846
 31
0.0
  0
LINE
  5
2BD8
330
A
100
AcDbEntity
  8
001
100
AcDbLine
 10
-111.0400839378158
 20
33.55347075140846
 30
0.0
 11
-111.0477111181525
 21
33.5481297867355
 31
0.0
  0
TEXT
  5
2BD9
330
A
100
AcDbEntity
  8
001
  6
Continuous
100
AcDbText
 10
-111.0699270673889
 20
33.53088033058507
 30
0.0
 40
0.0232799810762421
  1
42
 50
45.00000000000008
 41
0.6
 72
     1
 11
-111.0616963511464
 21
33.53911104682753
 31
0.0
100
AcDbText
  0
LINE
  5
2BE4
330
A
100
AcDbEntity
  8
002
100
AcDbLine
 10
-111.6174259455295
 20
34.02972832430759
 30
0.0
 11
-111.6174259455295
 21
33.98972832430759
 31
0.0
  0
LINE
  5
2BE5
330
A
100
AcDbEntity
  8
002
100
AcDbLine
 10
-111.6374259455296
 20
34.02972832430759
 30
0.0
 11
-111.5974259455295
 21
34.02972832430759
 31
0.0
  0
ENDSEC
  0
SECTION
  2
OBJECTS
  0
DICTIONARY
  5
19
330
0
100
AcDbDictionary
281
     1
  3
ACAD_COLOR
350
7BF
  3
ACAD_GROUP
350
1A
  3
ACAD_LAYOUT
350
105
  3
ACAD_MATERIAL
350
7AA
  3
ACAD_MLINESTYLE
350
1B
  3
ACAD_PLOTSETTINGS
350
106
  3
ACAD_PLOTSTYLENAME
350
76F
  3
ACAD_TABLESTYLE
350
7C0
  3
ACAD_VISUALSTYLE
350
7AE
  3
AcDbVariableDictionary
350
7A7
  3
DWGPROPS
350
83C
1001
ACAD
1000
TREAT_AS_HARD
1070
     0
  0
DICTIONARY
  5
802
330
7
100
AcDbDictionary
280
     1
281
     1
  3
ACAD_XREC_ROUNDTRIP
360
803
  0
DICTIONARY
  5
C88
330
2
100
AcDbDictionary
280
     1
281
     1
  3
ACAD_LAYERFILTERS
360
C93
  3
ACAD_LAYERSTATES
360
C89
  0
DICTIONARY
  5
806
330
14
100
AcDbDictionary
280
     1
281
     1
  3
ACAD_XREC_ROUNDTRIP
360
807
  0
DICTIONARY
  5
767
330
A
100
AcDbDictionary
280
     1
281
     1
  3
ACAD_LAYOUTSELFREF
360
804
  0
DICTIONARY
  5
769
330
B
100
AcDbDictionary
280
     1
281
     1
  3
ACAD_LAYOUTSELFREF
360
805
  0
DICTIONARY
  5
7BF
102
{ACAD_REACTORS
330
19
102
}
330
19
100
AcDbDictionary
281
     1
  0
DICTIONARY
  5
1A
102
{ACAD_REACTORS
330
19
102
}
330
19
100
AcDbDictionary
281
     1
1001
ACAD
1000
TREAT_AS_HARD
1070
     0
  0
DICTIONARY
  5
105
102
{ACAD_REACTORS
330
19
102
}
330
19
100
AcDbDictionary
281
     1
  3
Model
350
771
  3
ﾚｲｱｳﾄ1
350
772
1001
ACAD
1000
TREAT_AS_HARD
1070
     0
  0
DICTIONARY
  5
7AA
102
{ACAD_REACTORS
330
19
102
}
330
19
100
AcDbDictionary
281
     1
  3
ByBlock
350
7AC
  3
ByLayer
350
7AB
  3
Global
350
7AD
  0
DICTIONARY
  5
1B
102
{ACAD_REACTORS
330
19
102
}
330
19
100
AcDbDictionary
281
     1
  3
STANDARD
350
1C
1001
ACAD
1000
TREAT_AS_HARD
1070
     0
  0
DICTIONARY
  5
106
102
{ACAD_REACTORS
330
19
102
}
330
19
100
AcDbDictionary
281
     1
1001
ACAD
1000
TREAT_AS_HARD
1070
     0
  0
ACDBDICTIONARYWDFLT
  5
76F
102
{ACAD_REACTORS
330
19
102
}
330
19
100
AcDbDictionary
281
     1
  3
Normal
350
770
100
AcDbDictionaryWithDefault
340
770
1001
ACAD
1000
TREAT_AS_HARD
1070
     0
  0
DICTIONARY
  5
7C0
102
{ACAD_REACTORS
330
19
102
}
330
19
100
AcDbDictionary
281
     1
  3
Standard
350
7C1
  0
DICTIONARY
  5
7AE
102
{ACAD_REACTORS
330
19
102
}
330
19
100
AcDbDictionary
281
     1
  3
2dWireframe
350
7B4
  3
3D Hidden
350
7B6
  3
3dWireframe
350
7B5
  3
Basic
350
7B3
  3
Brighten
350
7BA
  3
ColorChange
350
7BE
  3
Conceptual
350
7B7
  3
Dim
350
7B9
  3
Facepattern
350
7BD
  3
Flat
350
7AF
  3
FlatWithEdges
350
7B0
  3
Gouraud
350
7B1
  3
GouraudWithEdges
350
7B2
  3
Linepattern
350
7BC
  3
Realistic
350
7B8
  3
Thicken
350
7BB
  0
DICTIONARY
  5
7A7
102
{ACAD_REACTORS
330
19
102
}
330
19
100
AcDbDictionary
281
     1
  3
CTABLESTYLE
350
824
  3
DIMASSOC
350
7A8
  3
INDEXCTL
350
826
  3
PROJECTNAME
350
835
  3
SORTENTS
350
825
  0
XRECORD
  5
83C
102
{ACAD_REACTORS
330
19
102
}
330
19
100
AcDbXrecord
280
     1
  1
DWGPROPS COOKIE
  2

  3

  4

  6

  7

  8
sendai
  9

300
=
301
=
302
=
303
=
304
=
305
=
306
=
307
=
308
=
309
=
 40
0.0323558217592593
 41
2444972.375
 42
2455449.586781504
  1

 90
        0
  0
XRECORD
  5
803
102
{ACAD_REACTORS
330
802
102
}
330
802
100
AcDbXrecord
280
     1
102
VTR_0.000_0.000_1.000_1.000_VISUALSTYLE
340
7B4
102
VTR_0.000_0.000_1.000_1.000_GRIDDISPLAY
 70
     3
102
VTR_0.000_0.000_1.000_1.000_GRIDMAJOR
 70
     5
102
VTR_0.000_0.000_1.000_1.000_DEFAULTLIGHTING
280
     1
102
VTR_0.000_0.000_1.000_1.000_DEFAULTLIGHTINGTYPE
 70
     1
102
VTR_0.000_0.000_1.000_1.000_BRIGHTNESS
141
0.0
102
VTR_0.000_0.000_1.000_1.000_CONTRAST
142
0.0
  0
DICTIONARY
  5
C93
102
{ACAD_REACTORS
330
C88
102
}
330
C88
100
AcDbDictionary
280
     1
281
     1
  0
DICTIONARY
  5
C89
102
{ACAD_REACTORS
330
C88
102
}
330
C88
100
AcDbDictionary
281
     1
  0
XRECORD
  5
807
102
{ACAD_REACTORS
330
806
102
}
330
806
100
AcDbXrecord
280
     1
102
MATERIAL
340
7AD
  0
XRECORD
  5
804
102
{ACAD_REACTORS
330
767
102
}
330
767
100
AcDbXrecord
280
     1
340
A
  0
XRECORD
  5
805
102
{ACAD_REACTORS
330
769
102
}
330
769
100
AcDbXrecord
280
     1
340
B
  0
LAYOUT
  5
771
102
{ACAD_XDICTIONARY
360
83E
102
}
102
{ACAD_REACTORS
330
105
102
}
330
105
100
AcDbPlotSettings
  1

  2
SHARP MX-2311FN SPDL2-c
  4
A4
  6
V0
 40
5.027083396911621
 41
5.027085304260253
 42
5.027084350585937
 43
5.027069091796875
 44
209.9733276367187
 45
296.9259948730469
 46
49.61
 47
93.84
 48
0.0
 49
0.0
140
42050.0
141
29700.0
142
100.0
143
1.0
 70
 11940
 72
     1
 73
     0
 74
     1
  7
プリンタ.ctb
 75
     0
147
100.0
148
-26.90582301805938
149
-37.22076443631755
100
AcDbLayout
  1
Model
 70
     1
 71
     0
 10
0.0
 20
0.0
 11
12.0
 21
9.0
 12
0.0
 22
0.0
 32
0.0
 14
0.0
 24
0.0
 34
0.0
 15
0.0
 25
0.0
 35
0.0
146
0.0
 13
0.0
 23
0.0
 33
0.0
 16
1.0
 26
0.0
 36
0.0
 17
0.0
 27
1.0
 37
0.0
 76
     0
330
A
  0
LAYOUT
  5
772
102
{ACAD_XDICTIONARY
360
840
102
}
102
{ACAD_REACTORS
330
105
102
}
330
105
100
AcDbPlotSettings
  1

  2
なし
  4

  6

 40
0.0
 41
0.0
 42
0.0
 43
0.0
 44
0.0
 45
0.0
 46
0.0
 47
0.0
 48
0.0
 49
0.0
140
0.0
141
0.0
142
1.0
143
1.0
 70
   688
 72
     0
 73
     0
 74
     5
  7
京セラレーザー.ctb
 75
    16
147
1.0
148
0.0
149
0.0
100
AcDbLayout
  1
ﾚｲｱｳﾄ1
 70
     0
 71
     1
 10
0.0
 20
0.0
 11
12.0
 21
9.0
 12
0.0
 22
0.0
 32
0.0
 14
1.000000000000000E+20
 24
1.000000000000000E+20
 34
1.000000000000000E+20
 15
-1.000000000000000E+20
 25
-1.000000000000000E+20
 35
-1.000000000000000E+20
146
0.0
 13
0.0
 23
0.0
 33
0.0
 16
1.0
 26
0.0
 36
0.0
 17
0.0
 27
1.0
 37
0.0
 76
     0
330
B
  0
ACAD_PROXY_OBJECT
  5
7AC
102
{ACAD_XDICTIONARY
360
81A
102
}
102
{ACAD_REACTORS
330
7AA
102
}
330
7AA
100
AcDbProxyObject
 90
      499
 91
      532
 95
   655383
 70
     0
 93
      574
310
41D096509313D0D2E004014040405AA6A9AA4060050101016A9AA6A9018000000000000E03F4040405AA6A9AA40650101016A9AA6A90190101016A9AA6A90194040405AA6A9AA400
 94
        0
  0
ACAD_PROXY_OBJECT
  5
7AB
102
{ACAD_XDICTIONARY
360
818
102
}
102
{ACAD_REACTORS
330
7AA
102
}
330
7AA
100
AcDbProxyObject
 90
      499
 91
      532
 95
   655383
 70
     0
 93
      574
310
41D0965310565154A004014040405AA6A9AA4060050101016A9AA6A9018000000000000E03F4040405AA6A9AA40650101016A9AA6A90190101016A9AA6A90194040405AA6A9AA400
 94
        0
  0
ACAD_PROXY_OBJECT
  5
7AD
102
{ACAD_XDICTIONARY
360
81C
102
}
102
{ACAD_REACTORS
330
7AA
102
}
330
7AA
100
AcDbProxyObject
 90
      499
 91
      532
 95
   655383
 70
     0
 93
      566
310
4191D313D090532004014040405AA6A9AA4060050101016A9AA6A9018000000000000E03F4040405AA6A9AA40650101016A9AA6A90190101016A9AA6A90194040405AA6A9AA400
 94
        0
  0
MLINESTYLE
  5
1C
102
{ACAD_REACTORS
330
1B
102
}
330
1B
100
AcDbMlineStyle
  2
STANDARD
 70
     0
  3

 62
     0
 51
90.00000000000019
 52
90.00000000000019
 71
     2
 49
0.5
 62
   256
  6
BYLAYER
 49
-0.5
 62
   256
  6
BYLAYER
  0
ACDBPLACEHOLDER
  5
770
102
{ACAD_REACTORS
330
76F
102
}
330
76F
  0
ACAD_PROXY_OBJECT
  5
7C1
102
{ACAD_XDICTIONARY
360
822
102
}
102
{ACAD_REACTORS
330
7C0
102
}
330
7C0
100
AcDbProxyObject
 90
      499
 91
      534
 95
   655383
 70
     0
 93
     1841
310
4214DD185B99185C9928B81E85EB51B8AE3F2E07A17AD46E2B8FC02B5E8DC0F42B1CFD028000000C1008070000C3001FDFF8000000C1003FBFF000000182007F7FE00000030400FEFFC00000060801FDFF8000000C1003FBFF00000018200000000000000681FA0B0000001820100E000186003FBFF000000182007F7FE000
310
00030400FEFFC00000060801FDFF8000000C1003FBFF000000182007F7FE000000304000AD7A3703D0AC73F4160000003040201C00030C007F7FE00000030400FEFFC00000060801FDFF8000000C1003FBFF000000182007F7FE00000030400FEFFC000000608000
340
17
340
17
340
17
 94
        0
  0
ACAD_PROXY_OBJECT
  5
7B4
102
{ACAD_REACTORS
330
7AE
102
}
330
7AE
100
AcDbProxyObject
 90
      499
 91
      533
 95
   655381
 70
     0
 93
      444
310
430C9915DA5C99599C985B59401049028333333333333E3BF0000000000000FB0107901411070040501600405405064090741402480A0340
 94
        0
1001
ACAD
1000
AcDbSavedByObjectVersion
1070
     0
1000
AcRTDxfName
1000
VISUALSTYLE
1000
AcRTDxfName
1000
VISUALSTYLE
  0
ACAD_PROXY_OBJECT
  5
7B6
102
{ACAD_REACTORS
330
7AE
102
}
330
7AE
100
AcDbProxyObject
 90
      499
 91
      533
 95
   655381
 70
     0
 93
      508
310
428CD108121A5919195B8010640502408333333333333E3BF0000000000000FB01079024090700405020000000000001110200405405064090740C02480A034B
 94
        0
1001
ACAD
1000
AcDbSavedByObjectVersion
1070
     0
1000
AcRTDxfName
1000
VISUALSTYLE
1000
AcRTDxfName
1000
VISUALSTYLE
  0
ACAD_PROXY_OBJECT
  5
7B5
102
{ACAD_REACTORS
330
7AE
102
}
330
7AE
100
AcDbProxyObject
 90
      499
 91
      533
 95
   655381
 70
     0
 93
      444
310
430CD915DA5C99599C985B59401059028333333333333E3BF0000000000000FB0107901411070040501600405405064090741402480A0340
 94
        0
1001
ACAD
1000
AcDbSavedByObjectVersion
1070
     0
1000
AcRTDxfName
1000
VISUALSTYLE
1000
AcRTDxfName
1000
VISUALSTYLE
  0
ACAD_PROXY_OBJECT
  5
7B3
102
{ACAD_REACTORS
330
7AE
102
}
330
7AE
100
AcDbProxyObject
 90
      499
 91
      533
 95
   655381
 70
     0
 93
      396
310
4190985CDA58C0107406404333333333333E3BF0000000000000FB0107A41107004050150841D405064090741402480A0356
 94
        0
1001
ACAD
1000
AcDbSavedByObjectVersion
1070
     0
1000
AcRTDxfName
1000
VISUALSTYLE
1000
AcRTDxfName
1000
VISUALSTYLE
  0
ACAD_PROXY_OBJECT
  5
7BA
102
{ACAD_REACTORS
330
7AE
102
}
330
7AE
100
AcDbProxyObject
 90
      499
 91
      533
 95
   655381
 70
     0
 93
      436
310
42509C9A59DA1D195B8010C409028333333333333E3BF0000000000000FB010790141107004050150841D405064090741402480A029956
 94
        0
1001
ACAD
1000
AcDbSavedByObjectVersion
1070
     0
1000
AcRTDxfName
1000
VISUALSTYLE
1000
AcRTDxfName
1000
VISUALSTYLE
  0
ACAD_PROXY_OBJECT
  5
7BE
102
{ACAD_REACTORS
330
7AE
102
}
330
7AE
100
AcDbProxyObject
 90
      499
 91
      533
 95
   655381
 70
     0
 93
      460
310
4310DBDB1BDC90DA185B99D9401104090240C333333333333E3BF0000000000000FB0108901411070040501508421405064090741402480A0354
 94
        0
1001
ACAD
1000
AcDbSavedByObjectVersion
1070
     0
1000
AcRTDxfName
1000
VISUALSTYLE
1000
AcRTDxfName
1000
VISUALSTYLE
  0
ACAD_PROXY_OBJECT
  5
7B7
102
{ACAD_REACTORS
330
7AE
102
}
330
7AE
100
AcDbProxyObject
 90
      499
 91
      533
 95
   655381
 70
     0
 93
      508
310
42D0DBDB98D95C1D1D585B0010940D028333333333333E3BF0000000000000FB0107902409070040501000000000000111010841D405064090740C02480A034B
 94
        0
1001
ACAD
1000
AcDbSavedByObjectVersion
1070
     0
1000
AcRTDxfName
1000
VISUALSTYLE
1000
AcRTDxfName
1000
VISUALSTYLE
  0
ACAD_PROXY_OBJECT
  5
7B9
102
{ACAD_REACTORS
330
7AE
102
}
330
7AE
100
AcDbProxyObject
 90
      499
 91
      533
 95
   655381
 70
     0
 93
      420
310
41111A5B4010B409028333333333333E3BF0000000000000FB010790141107004050150841D405064090741402480A02677FFFFFDB
 94
        0
1001
ACAD
1000
AcDbSavedByObjectVersion
1070
     0
1000
AcRTDxfName
1000
VISUALSTYLE
1000
AcRTDxfName
1000
VISUALSTYLE
  0
ACAD_PROXY_OBJECT
  5
7BD
102
{ACAD_REACTORS
330
7AE
102
}
330
7AE
100
AcDbProxyObject
 90
      499
 91
      533
 95
   655381
 70
     0
 93
      452
310
43119858D95C185D1D195C9B8010F409028333333333333E3BF0000000000000FB010790141107004050150841D405064090741402480A0350
 94
        0
1001
ACAD
1000
AcDbSavedByObjectVersion
1070
     0
1000
AcRTDxfName
1000
VISUALSTYLE
1000
AcRTDxfName
1000
VISUALSTYLE
  0
ACAD_PROXY_OBJECT
  5
7AF
102
{ACAD_REACTORS
330
7AE
102
}
330
7AE
100
AcDbProxyObject
 90
      499
 91
      533
 95
   655381
 70
     0
 93
      396
310
41519B185D00240901404333333333333E3BF0000000000000F9010740A41107004050150841D405064090741402480A1B50
 94
        0
1001
ACAD
1000
AcDbSavedByObjectVersion
1070
     0
1000
AcRTDxfName
1000
VISUALSTYLE
1000
AcRTDxfName
1000
VISUALSTYLE
  0
ACAD_PROXY_OBJECT
  5
7B0
102
{ACAD_REACTORS
330
7AE
102
}
330
7AE
100
AcDbProxyObject
 90
      499
 91
      533
 95
   655381
 70
     0
 93
      484
310
43919B185D15DA5D1A115919D95CC010140901404333333333333E3BF0000000000000F9010740901411070040501600405405064090741402480A1B5E
 94
        0
1001
ACAD
1000
AcDbSavedByObjectVersion
1070
     0
1000
AcRTDxfName
1000
VISUALSTYLE
1000
AcRTDxfName
1000
VISUALSTYLE
  0
ACAD_PROXY_OBJECT
  5
7B1
102
{ACAD_REACTORS
330
7AE
102
}
330
7AE
100
AcDbProxyObject
 90
      499
 91
      533
 95
   655381
 70
     0
 93
      420
310
4211DBDD5C985D590010240902404333333333333E3BF0000000000000F9010740A411070040501641D405064090741402480A1B50
 94
        0
1001
ACAD
1000
AcDbSavedByObjectVersion
1070
     0
1000
AcRTDxfName
1000
VISUALSTYLE
1000
AcRTDxfName
1000
VISUALSTYLE
  0
ACAD_PROXY_OBJECT
  5
7B2
102
{ACAD_REACTORS
330
7AE
102
}
330
7AE
100
AcDbProxyObject
 90
      499
 91
      533
 95
   655381
 70
     0
 93
      508
310
4451DBDD5C985D5915DA5D1A115919D95CC010340902404333333333333E3BF0000000000000F9010740901411070040501600405405064090741402480A1B5B
 94
        0
1001
ACAD
1000
AcDbSavedByObjectVersion
1070
     0
1000
AcRTDxfName
1000
VISUALSTYLE
1000
AcRTDxfName
1000
VISUALSTYLE
  0
ACAD_PROXY_OBJECT
  5
7BC
102
{ACAD_REACTORS
330
7AE
102
}
330
7AE
100
AcDbProxyObject
 90
      499
 91
      533
 95
   655381
 70
     0
 93
      452
310
43131A5B995C185D1D195C9B8010E409028333333333333E3BF0000000000000FB010790141107004050750841D405064090741402483A0350
 94
        0
1001
ACAD
1000
AcDbSavedByObjectVersion
1070
     0
1000
AcRTDxfName
1000
VISUALSTYLE
1000
AcRTDxfName
1000
VISUALSTYLE
  0
ACAD_PROXY_OBJECT
  5
7B8
102
{ACAD_REACTORS
330
7AE
102
}
330
7AE
100
AcDbProxyObject
 90
      499
 91
      533
 95
   655381
 70
     0
 93
      428
310
429499585B1A5CDD1A58C0108409028333333333333E3BF0000000000000FB01079019070040501508421405064090741402480A1B45
 94
        0
1001
ACAD
1000
AcDbSavedByObjectVersion
1070
     0
1000
AcRTDxfName
1000
VISUALSTYLE
1000
AcRTDxfName
1000
VISUALSTYLE
  0
ACAD_PROXY_OBJECT
  5
7BB
102
{ACAD_REACTORS
330
7AE
102
}
330
7AE
100
AcDbProxyObject
 90
      499
 91
      533
 95
   655381
 70
     0
 93
      420
310
42151A1A58DAD95B8010D409028333333333333E3BF0000000000000FB010790141107004050150C41D405064090741402480A0352
 94
        0
1001
ACAD
1000
AcDbSavedByObjectVersion
1070
     0
1000
AcRTDxfName
1000
VISUALSTYLE
1000
AcRTDxfName
1000
VISUALSTYLE
  0
DICTIONARYVAR
  5
824
102
{ACAD_REACTORS
330
7A7
102
}
330
7A7
100
DictionaryVariables
280
     0
  1
STANDARD
  0
DICTIONARYVAR
  5
7A8
102
{ACAD_REACTORS
330
7A7
102
}
330
7A7
100
DictionaryVariables
280
     0
  1
1
  0
DICTIONARYVAR
  5
826
102
{ACAD_REACTORS
330
7A7
102
}
330
7A7
100
DictionaryVariables
280
     0
  1
0
  0
DICTIONARYVAR
  5
835
102
{ACAD_REACTORS
330
7A7
102
}
330
7A7
100
DictionaryVariables
280
     0
  1

  0
DICTIONARYVAR
  5
825
102
{ACAD_REACTORS
330
7A7
102
}
330
7A7
100
DictionaryVariables
280
     0
  1
127
  0
DICTIONARY
  5
83E
330
771
100
AcDbDictionary
280
     1
281
     1
  3
ACAD_XREC_ROUNDTRIP
360
83F
  0
DICTIONARY
  5
840
330
772
100
AcDbDictionary
280
     1
281
     1
  3
ACAD_XREC_ROUNDTRIP
360
841
  0
DICTIONARY
  5
81A
330
7AC
100
AcDbDictionary
280
     1
281
     1
  3
ACAD_XREC_ROUNDTRIP
360
81B
  0
DICTIONARY
  5
818
330
7AB
100
AcDbDictionary
280
     1
281
     1
  3
ACAD_XREC_ROUNDTRIP
360
819
  0
DICTIONARY
  5
81C
330
7AD
100
AcDbDictionary
280
     1
281
     1
  3
ACAD_XREC_ROUNDTRIP
360
81D
  0
DICTIONARY
  5
822
330
7C1
100
AcDbDictionary
280
     1
281
     1
  3
ACAD_XREC_ROUNDTRIP
360
823
  0
XRECORD
  5
83F
102
{ACAD_REACTORS
330
83E
102
}
330
83E
100
AcDbXrecord
280
     1
102
SHADEPLOT
 70
     0
102
SHADEPLOTRESLEVEL
 70
     2
102
SHADEPLOTCUSTOMDPI
 70
   300
  0
XRECORD
  5
841
102
{ACAD_REACTORS
330
840
102
}
330
840
100
AcDbXrecord
280
     1
102
SHADEPLOT
 70
     0
102
SHADEPLOTRESLEVEL
 70
     2
102
SHADEPLOTCUSTOMDPI
 70
   300
  0
XRECORD
  5
81B
102
{ACAD_REACTORS
330
81A
102
}
330
81A
100
AcDbXrecord
280
     1
102
MATERIAL
148
0.0
149
0.0
149
0.0
 93
        0
 94
       63
282
     0
 72
     1
 77
     1
171
     1
175
     1
179
     1
273
     0
  0
XRECORD
  5
819
102
{ACAD_REACTORS
330
818
102
}
330
818
100
AcDbXrecord
280
     1
102
MATERIAL
148
0.0
149
0.0
149
0.0
 93
        0
 94
       63
282
     0
 72
     1
 77
     1
171
     1
175
     1
179
     1
273
     0
  0
XRECORD
  5
81D
102
{ACAD_REACTORS
330
81C
102
}
330
81C
100
AcDbXrecord
280
     1
102
MATERIAL
148
0.0
149
0.0
149
0.0
 93
        0
 94
       63
282
     0
 72
     1
 77
     1
171
     1
175
     1
179
     1
273
     0
  0
XRECORD
  5
823
102
{ACAD_REACTORS
330
822
102
}
330
822
100
AcDbXrecord
280
     1
102
ACAD_ROUNDTRIP_PRE2007_TABLESTYLE
 90
      512
 91
        0
  1

 92
      512
 93
        0
  2

 94
      512
 95
        0
  3

  0
ENDSEC
  0
EOF
