  0
SECTION
  2
HEADER
  9
$ACADVER
  1
AC1015
  9
$ACADMAINTVER
 70
    10
  9
$DWGCODEPAGE
  3
ANSI_932
  9
$INSBASE
 10
0.0
 20
0.0
 30
0.0
  9
$EXTMIN
 10
-128.6579050256106
 20
41.03546170638344
 30
-0.0000000000000058
  9
$EXTMAX
 10
-127.6286690896205
 20
42.01965348564513
 30
0.0000000000000104
  9
$LIMMIN
 10
0.0
 20
0.0
  9
$LIMMAX
 10
100.0
 20
100.0
  9
$ORTHOMODE
 70
     0
  9
$REGENMODE
 70
     1
  9
$FILLMODE
 70
     1
  9
$QTEXTMODE
 70
     0
  9
$MIRRTEXT
 70
     0
  9
$LTSCALE
 40
1.0
  9
$ATTMODE
 70
     1
  9
$TEXTSIZE
 40
0.0
  9
$TRACEWID
 40
0.05
  9
$TEXTSTYLE
  7
STANDARD
  9
$CLAYER
  8
DIM
  9
$CELTYPE
  6
CONTINUOUS
  9
$CECOLOR
 62
   256
  9
$CELTSCALE
 40
1.0
  9
$DISPSILH
 70
     0
  9
$DIMSCALE
 40
1.0
  9
$DIMASZ
 40
0.18
  9
$DIMEXO
 40
0.0625
  9
$DIMDLI
 40
0.38
  9
$DIMRND
 40
0.0
  9
$DIMDLE
 40
0.0
  9
$DIMEXE
 40
0.18
  9
$DIMTP
 40
0.0
  9
$DIMTM
 40
0.0
  9
$DIMTXT
 40
0.18
  9
$DIMCEN
 40
0.09
  9
$DIMTSZ
 40
0.0
  9
$DIMTOL
 70
     0
  9
$DIMLIM
 70
     0
  9
$DIMTIH
 70
     1
  9
$DIMTOH
 70
     1
  9
$DIMSE1
 70
     0
  9
$DIMSE2
 70
     0
  9
$DIMTAD
 70
     0
  9
$DIMZIN
 70
     0
  9
$DIMBLK
  1

  9
$DIMASO
 70
     1
  9
$DIMSHO
 70
     1
  9
$DIMPOST
  1

  9
$DIMAPOST
  1

  9
$DIMALT
 70
     0
  9
$DIMALTD
 70
     2
  9
$DIMALTF
 40
25.4
  9
$DIMLFAC
 40
1.0
  9
$DIMTOFL
 70
     0
  9
$DIMTVP
 40
0.0
  9
$DIMTIX
 70
     0
  9
$DIMSOXD
 70
     0
  9
$DIMSAH
 70
     0
  9
$DIMBLK1
  1

  9
$DIMBLK2
  1

  9
$DIMSTYLE
  2
STANDARD
  9
$DIMCLRD
 70
     0
  9
$DIMCLRE
 70
     0
  9
$DIMCLRT
 70
     0
  9
$DIMTFAC
 40
1.0
  9
$DIMGAP
 40
0.09
  9
$DIMJUST
 70
     0
  9
$DIMSD1
 70
     0
  9
$DIMSD2
 70
     0
  9
$DIMTOLJ
 70
     1
  9
$DIMTZIN
 70
     0
  9
$DIMALTZ
 70
     0
  9
$DIMALTTZ
 70
     0
  9
$DIMUPT
 70
     0
  9
$DIMDEC
 70
     4
  9
$DIMTDEC
 70
     4
  9
$DIMALTU
 70
     2
  9
$DIMALTTD
 70
     2
  9
$DIMTXSTY
  7
STANDARD
  9
$DIMAUNIT
 70
     0
  9
$DIMADEC
 70
     0
  9
$DIMALTRND
 40
0.0
  9
$DIMAZIN
 70
     0
  9
$DIMDSEP
 70
    46
  9
$DIMATFIT
 70
     3
  9
$DIMFRAC
 70
     0
  9
$DIMLDRBLK
  1

  9
$DIMLUNIT
 70
     2
  9
$DIMLWD
 70
    -2
  9
$DIMLWE
 70
    -2
  9
$DIMTMOVE
 70
     0
  9
$LUNITS
 70
     2
  9
$LUPREC
 70
     4
  9
$SKETCHINC
 40
0.1
  9
$FILLETRAD
 40
0.0
  9
$AUNITS
 70
     0
  9
$AUPREC
 70
     0
  9
$MENU
  1
acad
  9
$ELEVATION
 40
0.0
  9
$PELEVATION
 40
0.0
  9
$THICKNESS
 40
0.0
  9
$LIMCHECK
 70
     0
  9
$CHAMFERA
 40
0.0
  9
$CHAMFERB
 40
0.0
  9
$CHAMFERC
 40
0.0
  9
$CHAMFERD
 40
0.0
  9
$SKPOLY
 70
     0
  9
$TDCREATE
 40
2444972.375000000
  9
$TDUCREATE
 40
2444972.000000000
  9
$TDUPDATE
 40
2456381.498009791
  9
$TDUUPDATE
 40
2456381.123009791
  9
$TDINDWG
 40
0.1407052546
  9
$TDUSRTIMER
 40
0.1407052546
  9
$USRTIMER
 70
     1
  9
$ANGBASE
 50
0.0
  9
$ANGDIR
 70
     0
  9
$PDMODE
 70
     0
  9
$PDSIZE
 40
0.0
  9
$PLINEWID
 40
0.0
  9
$SPLFRAME
 70
     0
  9
$SPLINETYPE
 70
     6
  9
$SPLINESEGS
 70
     8
  9
$HANDSEED
  5
3488
  9
$SURFTAB1
 70
     6
  9
$SURFTAB2
 70
     6
  9
$SURFTYPE
 70
     6
  9
$SURFU
 70
     6
  9
$SURFV
 70
     6
  9
$UCSBASE
  2

  9
$UCSNAME
  2

  9
$UCSORG
 10
0.0
 20
0.0
 30
0.0
  9
$UCSXDIR
 10
1.0
 20
0.0
 30
0.0
  9
$UCSYDIR
 10
0.0
 20
1.0
 30
0.0
  9
$UCSORTHOREF
  2

  9
$UCSORTHOVIEW
 70
     0
  9
$UCSORGTOP
 10
0.0
 20
0.0
 30
0.0
  9
$UCSORGBOTTOM
 10
0.0
 20
0.0
 30
0.0
  9
$UCSORGLEFT
 10
0.0
 20
0.0
 30
0.0
  9
$UCSORGRIGHT
 10
0.0
 20
0.0
 30
0.0
  9
$UCSORGFRONT
 10
0.0
 20
0.0
 30
0.0
  9
$UCSORGBACK
 10
0.0
 20
0.0
 30
0.0
  9
$PUCSBASE
  2

  9
$PUCSNAME
  2

  9
$PUCSORG
 10
0.0
 20
0.0
 30
0.0
  9
$PUCSXDIR
 10
1.0
 20
0.0
 30
0.0
  9
$PUCSYDIR
 10
0.0
 20
1.0
 30
0.0
  9
$PUCSORTHOREF
  2

  9
$PUCSORTHOVIEW
 70
     0
  9
$PUCSORGTOP
 10
0.0
 20
0.0
 30
0.0
  9
$PUCSORGBOTTOM
 10
0.0
 20
0.0
 30
0.0
  9
$PUCSORGLEFT
 10
0.0
 20
0.0
 30
0.0
  9
$PUCSORGRIGHT
 10
0.0
 20
0.0
 30
0.0
  9
$PUCSORGFRONT
 10
0.0
 20
0.0
 30
0.0
  9
$PUCSORGBACK
 10
0.0
 20
0.0
 30
0.0
  9
$USERI1
 70
     0
  9
$USERI2
 70
     0
  9
$USERI3
 70
     0
  9
$USERI4
 70
     0
  9
$USERI5
 70
     0
  9
$USERR1
 40
0.0
  9
$USERR2
 40
0.0
  9
$USERR3
 40
0.0
  9
$USERR4
 40
0.0
  9
$USERR5
 40
0.0
  9
$WORLDVIEW
 70
     1
  9
$SHADEDGE
 70
     3
  9
$SHADEDIF
 70
    70
  9
$TILEMODE
 70
     1
  9
$MAXACTVP
 70
    16
  9
$PINSBASE
 10
0.0
 20
0.0
 30
0.0
  9
$PLIMCHECK
 70
     0
  9
$PEXTMIN
 10
1.000000000000000E+20
 20
1.000000000000000E+20
 30
1.000000000000000E+20
  9
$PEXTMAX
 10
-1.000000000000000E+20
 20
-1.000000000000000E+20
 30
-1.000000000000000E+20
  9
$PLIMMIN
 10
0.0
 20
0.0
  9
$PLIMMAX
 10
12.0
 20
9.0
  9
$UNITMODE
 70
     0
  9
$VISRETAIN
 70
     0
  9
$PLINEGEN
 70
     1
  9
$PSLTSCALE
 70
     0
  9
$TREEDEPTH
 70
  3020
  9
$CMLSTYLE
  2
STANDARD
  9
$CMLJUST
 70
     0
  9
$CMLSCALE
 40
1.0
  9
$PROXYGRAPHICS
 70
     1
  9
$MEASUREMENT
 70
     0
  9
$CELWEIGHT
370
    -1
  9
$ENDCAPS
280
     0
  9
$JOINSTYLE
280
     0
  9
$LWDISPLAY
290
     0
  9
$INSUNITS
 70
     0
  9
$HYPERLINKBASE
  1

  9
$STYLESHEET
  1
プリンタ.ctb
  9
$XEDIT
290
     1
  9
$CEPSNTYPE
380
     0
  9
$PSTYLEMODE
290
     1
  9
$FINGERPRINTGUID
  2
{7E5E7D33-40A8-4612-AA41-990508750287}
  9
$VERSIONGUID
  2
{A7032AC5-CAB6-4EAE-9EC1-52396B913396}
  9
$EXTNAMES
290
     1
  9
$PSVPSCALE
 40
0.0
  9
$OLESTARTUP
290
     0
  0
ENDSEC
  0
SECTION
  2
CLASSES
  0
CLASS
  1
LWPOLYLINE
  2
AcDbPolyline
  3
AutoCAD 2000
 90
    32768
280
     0
281
     1
  0
CLASS
  1
IMAGE
  2
AcDbRasterImage
  3
ISM
 90
    32895
280
     0
281
     1
  0
CLASS
  1
OLE2FRAME
  2
AcDbOle2Frame
  3
AutoCAD 2000
 90
    32768
280
     0
281
     1
  0
CLASS
  1
HATCH
  2
AcDbHatch
  3
AutoCAD 2000
 90
    32768
280
     0
281
     1
  0
CLASS
  1
DICTIONARYVAR
  2
AcDbDictionaryVar
  3
AutoCAD 2000
 90
        0
280
     0
281
     0
  0
CLASS
  1
RASTERVARIABLES
  2
AcDbRasterVariables
  3
ISM
 90
    32768
280
     0
281
     0
  0
CLASS
  1
IMAGEDEF
  2
AcDbRasterImageDef
  3
ISM
 90
    32768
280
     0
281
     0
  0
CLASS
  1
IMAGEDEF_REACTOR
  2
AcDbRasterImageDefReactor
  3
ISM
 90
    32769
280
     0
281
     0
  0
CLASS
  1
IDBUFFER
  2
AcDbIdBuffer
  3
AutoCAD 2000
 90
    32768
280
     0
281
     0
  0
CLASS
  1
SPATIAL_FILTER
  2
AcDbSpatialFilter
  3
AutoCAD 2000
 90
    32768
280
     0
281
     0
  0
CLASS
  1
XRECORD
  2
AcDbXrecord
  3
AutoCAD 2000
 90
    32768
280
     0
281
     0
  0
CLASS
  1
SORTENTSTABLE
  2
AcDbSortentsTable
  3
AutoCAD 2000
 90
    32768
280
     0
281
     0
  0
CLASS
  1
LAYER_INDEX
  2
AcDbLayerIndex
  3
AutoCAD 2000
 90
    32768
280
     0
281
     0
  0
CLASS
  1
SPATIAL_INDEX
  2
AcDbSpatialIndex
  3
AutoCAD 2000
 90
    32768
280
     0
281
     0
  0
CLASS
  1
OBJECT_PTR
  2
CAseDLPNTableRecord
  3
"ASE-LPNTableRecord"
 90
    32768
280
     0
281
     0
  0
CLASS
  1
LAYOUT
  2
AcDbLayout
  3
AutoCAD 2000
 90
        0
280
     0
281
     0
  0
CLASS
  1
PLOTSETTINGS
  2
AcDbPlotSettings
  3
AutoCAD 2000
 90
    32768
280
     0
281
     0
  0
CLASS
  1
ACDBDICTIONARYWDFLT
  2
AcDbDictionaryWithDefault
  3
AutoCAD 2000
 90
        0
280
     0
281
     0
  0
CLASS
  1
ACDBPLACEHOLDER
  2
AcDbPlaceHolder
  3
AutoCAD 2000
 90
        0
280
     0
281
     0
  0
CLASS
  1
VBA_PROJECT
  2
AcDbVbaProject
  3
acad
 90
    32768
280
     0
281
     0
  0
CLASS
  1
WIPEOUT
  2
AcDbWipeout
  3
"WipeOut|Product Desc: Object Enabler for WipeOut entity^I^I^I^I^I^I|Company: Autodesk, Inc.^I^I^I^I^I^I|WEB Address: www.autodesk.com"
 90
    32895
280
     0
281
     1
  0
CLASS
  1
WIPEOUTVARIABLES
  2
AcDbWipeoutVariables
  3
"WipeOut|Product Desc:     WipeOut Dbx Application|Company:          Autodesk, Inc.|WEB Address:      www.autodesk.com"
 90
    32768
280
     0
281
     0
  0
CLASS
  1
RTEXT
  2
RText
  3
RText|AutoCAD Express Tool|expresstools@autodesk.com
 90
    32768
280
     0
281
     1
  0
CLASS
  1
ARCALIGNEDTEXT
  2
AcDbArcAlignedText
  3
ATEXT|AutoCAD Express Tool|expresstools@autodesk.com
 90
    32768
280
     0
281
     1
  0
CLASS
  1
LONG_TRANSACTION
  2
AcDbLongTransaction
  3
AutoCAD 2000
 90
    32768
280
     0
281
     0
  0
CLASS
  1
LWPOLYLINE
  2
AcDbPolyline
  3
AutoCAD 2000
 90
    32768
280
     0
281
     1
  0
CLASS
  1
HATCH
  2
AcDbHatch
  3
AutoCAD 2000
 90
    32768
280
     0
281
     1
  0
CLASS
  1
XRECORD
  2
AcDbXrecord
  3
AutoCAD 2000
 90
    32768
280
     0
281
     0
  0
CLASS
  1
LONG_TRANSACTION
  2
AcDbLongTransaction
  3
AutoCAD 2000
 90
    32768
280
     0
281
     0
  0
CLASS
  1
LWPOLYLINE
  2
AcDbPolyline
  3
AutoCAD 2000
 90
    32768
280
     0
281
     1
  0
CLASS
  1
HATCH
  2
AcDbHatch
  3
AutoCAD 2000
 90
    32768
280
     0
281
     1
  0
CLASS
  1
XRECORD
  2
AcDbXrecord
  3
AutoCAD 2000
 90
    32768
280
     0
281
     0
  0
CLASS
  1
MATERIAL
  2
AcDbMaterial
  3
ObjectDBX Classes
 90
        0
280
     0
281
     0
  0
CLASS
  1
VISUALSTYLE
  2
AcDbVisualStyle
  3
ObjectDBX Classes
 90
     4095
280
     0
281
     0
  0
CLASS
  1
TABLESTYLE
  2
AcDbTableStyle
  3
ObjectDBX Classes
 90
     2047
280
     0
281
     0
  0
ENDSEC
  0
SECTION
  2
TABLES
  0
TABLE
  2
VPORT
  5
7
102
{ACAD_XDICTIONARY
360
802
102
}
330
0
100
AcDbSymbolTable
 70
     2
  0
VPORT
  5
3487
330
7
100
AcDbSymbolTableRecord
100
AcDbViewportTableRecord
  2
*Active
 70
     0
 10
0.0
 20
0.0
 11
1.0
 21
1.0
 12
-128.1432870576155
 22
41.52755759601428
 13
0.0
 23
0.0
 14
1.0
 24
1.0
 15
0.0
 25
0.0
 16
0.0
 26
0.0
 36
1.0
 17
0.0
 27
0.0
 37
0.0
 40
0.9923820021126914
 41
1.747222222222222
 42
50.0
 43
0.0
 44
0.0
 50
0.0
 51
0.0
 71
     0
 72
   100
 73
     1
 74
     0
 75
     0
 76
     0
 77
     0
 78
     0
281
     0
 65
     1
110
0.0
120
0.0
130
0.0
111
1.0
121
0.0
131
0.0
112
0.0
122
1.0
132
0.0
 79
     0
146
0.0
  0
ENDTAB
  0
TABLE
  2
LTYPE
  5
4
330
0
100
AcDbSymbolTable
 70
     3
  0
LTYPE
  5
11
330
4
100
AcDbSymbolTableRecord
100
AcDbLinetypeTableRecord
  2
BYBLOCK
 70
     0
  3

 72
    65
 73
     0
 40
0.0
  0
LTYPE
  5
12
330
4
100
AcDbSymbolTableRecord
100
AcDbLinetypeTableRecord
  2
BYLAYER
 70
     0
  3

 72
    65
 73
     0
 40
0.0
  0
LTYPE
  5
13
330
4
100
AcDbSymbolTableRecord
100
AcDbLinetypeTableRecord
  2
CONTINUOUS
 70
     0
  3
Solid line
 72
    65
 73
     0
 40
0.0
  0
LTYPE
  5
14E8
330
4
100
AcDbSymbolTableRecord
100
AcDbLinetypeTableRecord
  2
PHANTOM
 70
     0
  3
Phantom ______  __  __  ______  __  __  ______
 72
    65
 73
     6
 40
12.7
 49
6.349999999999999
 74
     0
 49
-1.27
 74
     0
 49
1.27
 74
     0
 49
-1.27
 74
     0
 49
1.27
 74
     0
 49
-1.27
 74
     0
  0
LTYPE
  5
14EA
330
4
100
AcDbSymbolTableRecord
100
AcDbLinetypeTableRecord
  2
CENTERX2
 70
     0
  3
Center (2x) ________  __  ________  __  _____
 72
    65
 73
     4
 40
20.32
 49
12.7
 74
     0
 49
-2.54
 74
     0
 49
2.54
 74
     0
 49
-2.54
 74
     0
  0
ENDTAB
  0
TABLE
  2
LAYER
  5
2
102
{ACAD_XDICTIONARY
360
C88
102
}
330
0
100
AcDbSymbolTable
 70
     5
  0
LAYER
  5
14
102
{ACAD_XDICTIONARY
360
806
102
}
330
2
100
AcDbSymbolTableRecord
100
AcDbLayerTableRecord
  2
0
 70
     0
 62
     7
  6
CONTINUOUS
370
    -3
390
770
  0
LAYER
  5
8A5
330
2
100
AcDbSymbolTableRecord
100
AcDbLayerTableRecord
  2
DIM
 70
     0
 62
     3
  6
CONTINUOUS
370
    -3
390
770
  0
LAYER
  5
8A6
330
2
100
AcDbSymbolTableRecord
100
AcDbLayerTableRecord
  2
DEFPOINTS
 70
     0
 62
     7
  6
CONTINUOUS
290
     0
370
    -3
390
770
  0
LAYER
  5
C94
330
2
100
AcDbSymbolTableRecord
100
AcDbLayerTableRecord
  2
001
 70
     0
 62
     7
  6
CONTINUOUS
370
    -3
390
770
  0
LAYER
  5
C95
330
2
100
AcDbSymbolTableRecord
100
AcDbLayerTableRecord
  2
002
 70
     0
 62
     7
  6
CONTINUOUS
370
    -3
390
770
  0
ENDTAB
  0
TABLE
  2
STYLE
  5
3
330
0
100
AcDbSymbolTable
 70
     1
  0
STYLE
  5
17
330
3
100
AcDbSymbolTableRecord
100
AcDbTextStyleTableRecord
  2
STANDARD
 70
     0
 40
0.0
 41
0.8
 50
0.0
 71
     0
 42
0.0
  3
txt.shx
  4
extfont.shx
  0
ENDTAB
  0
TABLE
  2
VIEW
  5
5
330
0
100
AcDbSymbolTable
 70
     0
  0
ENDTAB
  0
TABLE
  2
UCS
  5
6
330
0
100
AcDbSymbolTable
 70
     0
  0
ENDTAB
  0
TABLE
  2
APPID
  5
8
330
0
100
AcDbSymbolTable
 70
    17
  0
APPID
  5
16
330
8
100
AcDbSymbolTableRecord
100
AcDbRegAppTableRecord
  2
ACAD
 70
     0
  0
APPID
  5
8AA
330
8
100
AcDbSymbolTableRecord
100
AcDbRegAppTableRecord
  2
ACAD_DSTYLE_DIMRADIAL_EXTENSION
 70
     0
  0
APPID
  5
D4A
330
8
100
AcDbSymbolTableRecord
100
AcDbRegAppTableRecord
  2
DCO15
 70
     0
  0
APPID
  5
D4B
330
8
100
AcDbSymbolTableRecord
100
AcDbRegAppTableRecord
  2
ACAD_EXEMPT_FROM_CAD_STANDARDS
 70
     0
  0
APPID
  5
D4C
330
8
100
AcDbSymbolTableRecord
100
AcDbRegAppTableRecord
  2
ACAD_DSTYLE_DIMTEXT_FILL
 70
     0
  0
APPID
  5
D4D
330
8
100
AcDbSymbolTableRecord
100
AcDbRegAppTableRecord
  2
ACAD_DSTYLE_DIMEXT_LENGTH
 70
     0
  0
APPID
  5
D4E
330
8
100
AcDbSymbolTableRecord
100
AcDbRegAppTableRecord
  2
ACAD_DSTYLE_DIMEXT_ENABLED
 70
     0
  0
APPID
  5
D4F
330
8
100
AcDbSymbolTableRecord
100
AcDbRegAppTableRecord
  2
ACAD_DSTYLE_DIM_LINETYPE
 70
     0
  0
APPID
  5
D50
330
8
100
AcDbSymbolTableRecord
100
AcDbRegAppTableRecord
  2
ACAD_DSTYLE_DIM_EXT1_LINETYPE
 70
     0
  0
APPID
  5
D51
330
8
100
AcDbSymbolTableRecord
100
AcDbRegAppTableRecord
  2
ACAD_DSTYLE_DIM_EXT2_LINETYPE
 70
     0
  0
APPID
  5
D52
330
8
100
AcDbSymbolTableRecord
100
AcDbRegAppTableRecord
  2
ACAD_DSTYLE_DIMJOGGED_JOGANGLE_SYMBOL
 70
     0
  0
APPID
  5
D53
330
8
100
AcDbSymbolTableRecord
100
AcDbRegAppTableRecord
  2
ACAD_DSTYLE_DIMARC_LENGTH_SYMBOL
 70
     0
  0
APPID
  5
D54
330
8
100
AcDbSymbolTableRecord
100
AcDbRegAppTableRecord
  2
ACAD_PSEXT
 70
     0
  0
APPID
  5
D55
330
8
100
AcDbSymbolTableRecord
100
AcDbRegAppTableRecord
  2
ACAD_MLEADERVER
 70
     0
  0
APPID
  5
D56
330
8
100
AcDbSymbolTableRecord
100
AcDbRegAppTableRecord
  2
ACAD_DSTYLE_DIMJAG
 70
     0
  0
APPID
  5
D57
330
8
100
AcDbSymbolTableRecord
100
AcDbRegAppTableRecord
  2
ACAD_DSTYLE_DIMTALN
 70
     0
  0
APPID
  5
D58
330
8
100
AcDbSymbolTableRecord
100
AcDbRegAppTableRecord
  2
AcadStringInfo
 70
     0
  0
ENDTAB
  0
TABLE
  2
DIMSTYLE
  5
9
330
0
100
AcDbSymbolTable
 70
     1
100
AcDbDimStyleTable
 71
     0
  0
DIMSTYLE
105
18
330
9
100
AcDbSymbolTableRecord
100
AcDbDimStyleTableRecord
  2
STANDARD
 70
     0
340
17
  0
ENDTAB
  0
TABLE
  2
BLOCK_RECORD
  5
1
330
0
100
AcDbSymbolTable
 70
     1
  0
BLOCK_RECORD
  5
A
102
{ACAD_XDICTIONARY
360
767
102
}
330
1
100
AcDbSymbolTableRecord
100
AcDbBlockTableRecord
  2
*MODEL_SPACE
340
771
  0
BLOCK_RECORD
  5
B
102
{ACAD_XDICTIONARY
360
769
102
}
330
1
100
AcDbSymbolTableRecord
100
AcDbBlockTableRecord
  2
*PAPER_SPACE
340
772
  0
BLOCK_RECORD
  5
D2D
330
1
100
AcDbSymbolTableRecord
100
AcDbBlockTableRecord
  2
SDI2HDMI BOARD
340
0
102
{BLKREFS
331
12CF
102
}
  0
ENDTAB
  0
ENDSEC
  0
SECTION
  2
BLOCKS
  0
BLOCK
  5
D
330
A
100
AcDbEntity
  8
0
100
AcDbBlockBegin
  2
*MODEL_SPACE
 70
     0
 10
0.0
 20
0.0
 30
0.0
  3
*MODEL_SPACE
  1

  0
ENDBLK
  5
E
330
A
100
AcDbEntity
  8
0
100
AcDbBlockEnd
  0
BLOCK
  5
F
330
B
100
AcDbEntity
 67
     1
  8
0
100
AcDbBlockBegin
  2
*PAPER_SPACE
 70
     0
 10
0.0
 20
0.0
 30
0.0
  3
*PAPER_SPACE
  1

  0
ENDBLK
  5
10
330
B
100
AcDbEntity
 67
     1
  8
0
100
AcDbBlockEnd
  0
BLOCK
  5
D2E
330
D2D
100
AcDbEntity
  8
0
100
AcDbBlockBegin
  2
SDI2HDMI BOARD
 70
     0
 10
0.0
 20
0.0
 30
0.0
  3
SDI2HDMI BOARD
  1

  0
ENDBLK
  5
D2F
330
D2D
100
AcDbEntity
  8
0
100
AcDbBlockEnd
  0
ENDSEC
  0
SECTION
  2
ENTITIES
  0
LINE
  5
A6
330
A
100
AcDbEntity
  8
002
100
AcDbLine
 10
-128.6424852967445
 20
41.93591691904495
 30
0.0
 11
-127.6424852967445
 21
41.93591691904495
 31
0.0
  0
LINE
  5
A5
330
A
100
AcDbEntity
  8
002
100
AcDbLine
 10
-128.4424849504026
 20
42.01591757709463
 30
0.0
 11
-128.4424849504026
 21
41.93591691904495
 31
0.0
  0
LINE
  5
A3
330
A
100
AcDbEntity
  8
002
100
AcDbLine
 10
-127.7424846040607
 20
41.23592427784181
 30
0.0
 11
-127.7424846040607
 21
41.03592566320956
 31
0.0
  0
LINE
  5
A2
330
A
100
AcDbEntity
  8
002
100
AcDbLine
 10
-128.5424851235736
 20
41.23592427784181
 30
0.0
 11
-128.5424851235736
 21
41.03592566320956
 31
0.0
  0
LINE
  5
A0
330
A
100
AcDbEntity
  8
002
100
AcDbLine
 10
-128.5424851235736
 20
41.19592351588955
 30
0.0
 11
-127.7424846040607
 21
41.19592351588955
 31
0.0
  0
LINE
  5
9F
330
A
100
AcDbEntity
  8
002
100
AcDbLine
 10
-128.5424851235736
 20
41.15592448564697
 30
0.0
 11
-127.7424846040607
 21
41.15592448564697
 31
0.0
  0
LINE
  5
9E
330
A
100
AcDbEntity
  8
002
100
AcDbLine
 10
-128.5424851235736
 20
41.11592372369471
 30
0.0
 11
-127.7424846040607
 21
41.11592372369471
 31
0.0
  0
LINE
  5
9D
330
A
100
AcDbEntity
  8
002
100
AcDbLine
 10
-128.3874849850368
 20
41.23592427784181
 30
0.0
 11
-128.3874849850368
 21
41.03592566320957
 31
0.0
  0
LINE
  5
9C
330
A
100
AcDbEntity
  8
002
100
AcDbLine
 10
-128.5424851235736
 20
41.23592427784181
 30
0.0
 11
-127.7424846040607
 21
41.23592427784181
 31
0.0
  0
TEXT
  5
26B
330
A
100
AcDbEntity
  8
002
  6
Continuous
100
AcDbText
 10
-128.3659832117661
 20
41.16342793992314
 30
0.0
 40
0.024999993243562
  1
圧延鋼板アルミ合金
 41
0.7
100
AcDbText
  0
TEXT
  5
4D4
330
A
100
AcDbEntity
  8
002
  6
Continuous
100
AcDbText
 10
-127.8276575030895
 20
41.89341730002108
 30
0.0
 40
0.024999993243562
  1
WH-31
 41
0.8
100
AcDbText
  0
TEXT
  5
4D5
330
A
100
AcDbEntity
  8
002
  6
Continuous
100
AcDbText
 10
-128.3487068101202
 20
41.95591730002108
 30
0.0
 40
0.0399999901963199
  1
天井／壁付金具
 41
0.8
100
AcDbText
  0
TEXT
  5
4D7
330
A
100
AcDbEntity
  8
002
  6
Continuous
100
AcDbText
 10
-128.370819011054
 20
41.20342697016572
 30
0.0
 40
0.024999993243562
  1
壁面／天井用（伸縮なし 長さ１３０ｍｍ）
 41
0.7
100
AcDbText
  0
TEXT
  5
4D9
330
A
100
AcDbEntity
  8
002
  6
Continuous
100
AcDbText
 10
-128.3663728464446
 20
41.12342717797088
 30
0.0
 40
0.024999993243562
  1
前後＋９０°～－２０° 回転３６０°
 41
0.6
100
AcDbText
  0
TEXT
  5
4DA
330
A
100
AcDbEntity
  8
002
  6
Continuous
100
AcDbText
 10
-128.5233583901322
 20
41.16342793992314
 30
0.0
 40
0.024999993243562
  1
材　　質
 41
0.8
100
AcDbText
  0
TEXT
  5
4DC
330
A
100
AcDbEntity
  8
002
  6
Continuous
100
AcDbText
 10
-128.5233583901322
 20
41.12342717797088
 30
0.0
 40
0.024999993243562
  1
最大回転角度
 41
0.75
100
AcDbText
  0
TEXT
  5
4DD
330
A
100
AcDbEntity
  8
002
  6
Continuous
100
AcDbText
 10
-128.5233583901322
 20
41.20342697016572
 30
0.0
 40
0.024999993243562
  1
設置条件
 41
0.8
100
AcDbText
  0
LINE
  5
651
330
A
100
AcDbEntity
  8
002
100
AcDbLine
 10
-128.5424851235736
 20
41.03592566320956
 30
0.0
 11
-127.7424846040607
 21
41.03592566320956
 31
0.0
  0
TEXT
  5
67A
330
A
100
AcDbEntity
  8
002
  6
Continuous
100
AcDbText
 10
-128.3663724393568
 20
41.08342816893394
 30
0.0
 40
0.0249999769310372
  1
４Ｋｇ／約０．２４Ｋｇ
 41
0.7
100
AcDbText
  0
TEXT
  5
67D
330
A
100
AcDbEntity
  8
002
  6
Continuous
100
AcDbText
 10
-128.5233578806111
 20
41.08342730307966
 30
0.0
 40
0.0249999769310372
  1
最大搭載荷重/重量
 41
0.5
100
AcDbText
  0
LINE
  5
74E
330
A
100
AcDbEntity
  8
002
100
AcDbLine
 10
-128.5424851235736
 20
41.07592469345213
 30
0.0
 11
-127.7424846040607
 21
41.07592469345213
 31
0.0
  0
INSERT
  5
12CF
330
A
100
AcDbEntity
  8
0
  6
Continuous
100
AcDbBlockReference
  2
SDI2HDMI BOARD
 10
-4275.899559001942
 20
802.2038705106574
 30
0.0
  0
ARC
  5
2F4C
330
A
100
AcDbEntity
  8
001
  6
Continuous
370
    15
100
AcDbCircle
 10
-128.3367815620664
 20
41.61143864993772
 30
0.0
 40
0.0016666666666667
100
AcDbArc
 50
0.0
 51
39.8329820869
  0
ARC
  5
2F4D
330
A
100
AcDbEntity
  8
001
  6
Continuous
370
    15
100
AcDbCircle
 10
-128.3367815620664
 20
41.60590967827473
 30
0.0
 40
0.0016666666666667
100
AcDbArc
 50
320.1670179131001
 51
0.0
  0
LINE
  5
2F4E
330
A
100
AcDbEntity
  8
001
  6
Continuous
370
    15
100
AcDbLine
 10
-128.3759482290932
 20
41.63734083174648
 30
0.0
 11
-128.3758955100264
 21
41.63633489781598
 31
0.0
  0
LINE
  5
2F4F
330
A
100
AcDbEntity
  8
001
  6
Continuous
370
    15
100
AcDbLine
 10
-128.3526676141062
 20
41.63633489781598
 30
0.0
 11
-128.3526148950394
 21
41.63734083174648
 31
0.0
  0
LINE
  5
2F50
330
A
100
AcDbEntity
  8
001
  6
Continuous
370
    15
100
AcDbLine
 10
-128.3526148950394
 20
41.63734083174648
 30
0.0
 11
-128.3538491931459
 21
41.65144892209748
 31
0.0
  0
LINE
  5
2F51
330
A
100
AcDbEntity
  8
001
  6
Continuous
370
    15
100
AcDbLine
 10
-128.3747139853139
 20
41.65144829500698
 30
0.0
 11
-128.3759482290932
 21
41.63734083174648
 31
0.0
  0
SPLINE
  5
2F52
330
A
100
AcDbEntity
  8
001
  6
Continuous
370
    15
100
AcDbSpline
210
0.0
220
0.0
230
1.0
 70
     8
 71
     3
 72
    11
 73
     7
 74
     0
 42
0.0000000001
 43
0.0000000001
 40
0.0
 40
0.0
 40
0.0
 40
0.0
 40
0.1939966023474528
 40
0.4611499998754853
 40
0.7316173113036493
 40
1.0
 40
1.0
 40
1.0
 40
1.0
 10
-128.3733956213755
 20
41.65295761189341
 30
0.0
 10
-128.3735547360611
 20
41.6529012321084
 30
0.0
 10
-128.3739329681353
 20
41.65276721152486
 30
0.0
 10
-128.3743576416396
 20
41.65238556291528
 30
0.0
 10
-128.3746474899102
 20
41.65189573082158
 30
0.0
 10
-128.3746570134137
 20
41.65155661047083
 30
0.0
 10
-128.374661756744
 20
41.65138770626465
 30
0.0
  0
SPLINE
  5
2F53
330
A
100
AcDbEntity
  8
001
  6
Continuous
370
    15
100
AcDbSpline
210
0.0
220
0.0
230
1.0
 70
     8
 71
     3
 72
    11
 73
     7
 74
     0
 42
0.0000000001
 43
0.0000000001
 40
0.0
 40
0.0
 40
0.0
 40
0.0
 40
0.2735523585062169
 40
0.5492263135395147
 40
0.821525017639365
 40
1.0
 40
1.0
 40
1.0
 40
1.0
 10
-128.3539013704931
 20
41.65138770316024
 30
0.0
 10
-128.353906073529
 20
41.65155664395881
 30
0.0
 10
-128.3539155160765
 20
41.65189583581413
 30
0.0
 10
-128.3542059458574
 20
41.65238511368094
 30
0.0
 10
-128.3546177041065
 20
41.65275877149738
 30
0.0
 10
-128.3549796154627
 20
41.65288809563602
 30
0.0
 10
-128.3551229071518
 20
41.65293929898719
 30
0.0
  0
SPLINE
  5
2F54
330
A
100
AcDbEntity
  8
001
  6
Continuous
370
    15
100
AcDbSpline
210
0.0
220
0.0
230
1.0
 70
     8
 71
     3
 72
    13
 73
     9
 74
     0
 42
0.0000000001
 43
0.0000000001
 40
0.0
 40
0.0
 40
0.0
 40
0.0
 40
0.1274382830311811
 40
0.2751208271105601
 40
0.4369507460307738
 40
0.6129323718443973
 40
0.8030650549793172
 40
1.0
 40
1.0
 40
1.0
 40
1.0
 10
-128.365529296829
 20
41.65530555992305
 30
0.0
 10
-128.3656704555732
 20
41.65522006758961
 30
0.0
 10
-128.3659751968922
 20
41.65503550200281
 30
0.0
 10
-128.3667120575328
 20
41.65471394764542
 30
0.0
 10
-128.3677500541989
 20
41.65434398642808
 30
0.0
 10
-128.3691682203731
 20
41.65392995902386
 30
0.0
 10
-128.370968118012
 20
41.6534819185732
 30
0.0
 10
-128.3724978910868
 20
41.65317189887225
 30
0.0
 10
-128.3732762196126
 20
41.65301416490454
 30
0.0
  0
SPLINE
  5
2F55
330
A
100
AcDbEntity
  8
001
  6
Continuous
370
    15
100
AcDbSpline
210
0.0
220
0.0
230
1.0
 70
     8
 71
     3
 72
    13
 73
     9
 74
     0
 42
0.0000000001
 43
0.0000000001
 40
0.0
 40
0.0
 40
0.0
 40
0.0
 40
0.1979825853702658
 40
0.3878430624167332
 40
0.5635724696076301
 40
0.7251708235214114
 40
0.8726422412074914
 40
1.0
 40
1.0
 40
1.0
 40
1.0
 10
-128.3552712233761
 20
41.65301086181382
 30
0.0
 10
-128.3560548268048
 20
41.65316964473829
 30
0.0
 10
-128.3575898868351
 20
41.65348069661981
 30
0.0
 10
-128.3593942986706
 20
41.65392976419556
 30
0.0
 10
-128.3608123940442
 20
41.65434376053256
 30
0.0
 10
-128.3618504948145
 20
41.6547137120009
 30
0.0
 10
-128.362587628169
 20
41.6550353496521
 30
0.0
 10
-128.3628925984666
 20
41.65522001551652
 30
0.0
 10
-128.3630339238313
 20
41.65530559096713
 30
0.0
  0
LINE
  5
2F56
330
A
100
AcDbEntity
  8
001
  6
Continuous
370
    15
100
AcDbLine
 10
-128.3641133280049
 20
41.65558164118698
 30
0.0
 11
-128.3645909205289
 21
41.65558164118698
 31
0.0
  0
SPLINE
  5
2F57
330
A
100
AcDbEntity
  8
001
  6
Continuous
370
    15
100
AcDbSpline
210
0.0
220
0.0
230
1.0
 70
     8
 71
     3
 72
    11
 73
     7
 74
     0
 42
0.0000000001
 43
0.0000000001
 40
0.0
 40
0.0
 40
0.0
 40
0.0
 40
0.2500945408155372
 40
0.4999948402560767
 40
0.7497195604726189
 40
1.0
 40
1.0
 40
1.0
 40
1.0
 10
-128.4055269176475
 20
41.55563861552853
 30
0.0
 10
-128.4056275083693
 20
41.55573920503074
 30
0.0
 10
-128.4058286116867
 20
41.5559403059101
 30
0.0
 10
-128.4062091432378
 20
41.55632083712645
 30
0.0
 10
-128.4066238910218
 20
41.55673558990322
 30
0.0
 10
-128.4069155376568
 20
41.55702723587153
 30
0.0
 10
-128.4070615230463
 20
41.55717322092731
 30
0.0
  0
SPLINE
  5
2F58
330
A
100
AcDbEntity
  8
001
  6
Continuous
370
    15
100
AcDbSpline
210
0.0
220
0.0
230
1.0
 70
     8
 71
     3
 72
    11
 73
     7
 74
     0
 42
0.0000000001
 43
0.0000000001
 40
0.0
 40
0.0
 40
0.0
 40
0.0
 40
0.2500947832067023
 40
0.4999953248501487
 40
0.7497219710711384
 40
1.0
 40
1.0
 40
1.0
 40
1.0
 10
-128.4220311550759
 20
41.56271476409315
 30
0.0
 10
-128.4219305655568
 20
41.56261417337308
 30
0.0
 10
-128.4217294646439
 20
41.56241307005892
 30
0.0
 10
-128.4213489328246
 20
41.56203253762845
 30
0.0
 10
-128.4209341795121
 20
41.56161779035922
 30
0.0
 10
-128.4206425355623
 20
41.56132614312116
 30
0.0
 10
-128.4204965527815
 20
41.56118015869438
 30
0.0
  0
SPLINE
  5
2F59
330
A
100
AcDbEntity
  8
001
  6
Continuous
370
    15
100
AcDbSpline
210
0.0
220
0.0
230
1.0
 70
     8
 71
     3
 72
    11
 73
     7
 74
     0
 42
0.0000000001
 43
0.0000000001
 40
0.0
 40
0.0
 40
0.0
 40
0.0
 40
0.2500947865967442
 40
0.4999963989113715
 40
0.7497207529377809
 40
1.0
 40
1.0
 40
1.0
 40
1.0
 10
-128.4157825052453
 20
41.56589420312623
 30
0.0
 10
-128.4159283767889
 20
41.56604007511404
 30
0.0
 10
-128.4162200072046
 20
41.56633170641752
 30
0.0
 10
-128.4166346962632
 20
41.56674638882291
 30
0.0
 10
-128.4170153941636
 20
41.56712709337795
 30
0.0
 10
-128.4172164641028
 20
41.56732816242864
 30
0.0
 10
-128.417317110644
 20
41.567428808525
 30
0.0
  0
SPLINE
  5
2F5A
330
A
100
AcDbEntity
  8
001
  6
Continuous
370
    15
100
AcDbSpline
210
0.0
220
0.0
230
1.0
 70
     8
 71
     3
 72
    11
 73
     7
 74
     0
 42
0.0000000001
 43
0.0000000001
 40
0.0
 40
0.0
 40
0.0
 40
0.0
 40
0.2500941233945355
 40
0.4999959567174961
 40
0.7497205315954745
 40
1.0
 40
1.0
 40
1.0
 40
1.0
 10
-128.4117755674782
 20
41.55245917339105
 30
0.0
 10
-128.4116296953598
 20
41.55231330302889
 30
0.0
 10
-128.41133806328
 20
41.55202167446002
 30
0.0
 10
-128.4109233818927
 20
41.55160698536747
 30
0.0
 10
-128.4105426771986
 20
41.55122628760469
 30
0.0
 10
-128.4103416081665
 20
41.55102521764703
 30
0.0
 10
-128.4102409620794
 20
41.55092457109669
 30
0.0
  0
LINE
  5
2F5B
330
A
100
AcDbEntity
  8
001
  6
Continuous
370
    15
100
AcDbLine
 10
-128.4070615230464
 20
41.55717322092722
 30
0.0
 11
-128.4157825052452
 21
41.56589420312623
 31
0.0
  0
LINE
  5
2F5C
330
A
100
AcDbEntity
  8
001
  6
Continuous
370
    15
100
AcDbLine
 10
-128.4204965527814
 20
41.56118015869448
 30
0.0
 11
-128.4117755674782
 21
41.55245917339097
 31
0.0
  0
ELLIPSE
  5
2F5D
330
A
100
AcDbEntity
  8
001
  6
Continuous
370
    15
100
AcDbEllipse
 10
-128.4238465992194
 20
41.56523731346648
 30
0.0
 11
0.0003535533905933
 21
0.0003535533905933
 31
0.0
210
0.0
220
0.0
230
1.0
 40
0.4662411946999999
 41
1.570796326806617
 42
3.141592653599413
  0
LINE
  5
2F5E
330
A
100
AcDbEntity
  8
001
  6
Continuous
370
    15
100
AcDbLine
 10
-128.4242001556817
 20
41.56488376159447
 30
0.0
 11
-128.4220311550759
 21
41.56271476409322
 31
0.0
  0
ELLIPSE
  5
2F5F
330
A
100
AcDbEntity
  8
001
  6
Continuous
370
    15
100
AcDbEllipse
 10
-128.4198396607927
 20
41.56924425189322
 30
0.0
 11
0.0003535533905933
 21
0.0003535533905932
 31
0.0
210
0.0
220
0.0
230
1.0
 40
0.4662411947
 41
0.0
 42
1.570796326789053
  0
LINE
  5
2F60
330
A
100
AcDbEntity
  8
001
  6
Continuous
370
    15
100
AcDbLine
 10
-128.4173171106439
 20
41.56742880852497
 30
0.0
 11
-128.4194861050409
 21
41.56959780602623
 31
0.0
  0
ELLIPSE
  5
2F61
330
A
100
AcDbEntity
  8
001
  6
Continuous
370
    15
100
AcDbEllipse
 10
-128.4077184127061
 20
41.54910912695322
 30
0.0
 11
0.0003535533905933
 21
0.0003535533905933
 31
0.0
210
0.0
220
0.0
230
1.0
 40
0.4662411947000001
 41
3.141592653588823
 42
4.712388980372915
  0
LINE
  5
2F62
330
A
100
AcDbEntity
  8
001
  6
Continuous
370
    15
100
AcDbLine
 10
-128.4102409620794
 20
41.55092457109673
 30
0.0
 11
-128.4080719645782
 21
41.54875557049098
 31
0.0
  0
ELLIPSE
  5
2F63
330
A
100
AcDbEntity
  8
001
  6
Continuous
370
    15
100
AcDbEllipse
 10
-128.4037114742794
 20
41.55311606537998
 30
0.0
 11
0.0003535533905933
 21
0.0003535533905933
 31
0.0
210
0.0
220
0.0
230
1.0
 40
0.4662411947
 41
4.712388980390585
 42
6.283185307179585
  0
LINE
  5
2F64
330
A
100
AcDbEntity
  8
001
  6
Continuous
370
    15
100
AcDbLine
 10
-128.4033579201462
 20
41.55346962113172
 30
0.0
 11
-128.4055269176477
 21
41.55563861552848
 31
0.0
  0
LINE
  5
2F65
330
A
100
AcDbEntity
  8
001
  6
Continuous
370
    15
100
AcDbLine
 10
-128.4240114386839
 20
41.56540215436598
 30
0.0
 11
-128.4200045040212
 21
41.56940909213298
 31
0.0
  0
LINE
  5
2F66
330
A
100
AcDbEntity
  8
001
  6
Continuous
370
    15
100
AcDbLine
 10
-128.4035466340394
 20
41.55295122215123
 30
0.0
 11
-128.4075535718067
 21
41.54894428748873
 31
0.0
  0
CIRCLE
  5
2F67
330
A
100
AcDbEntity
  8
001
  6
Continuous
370
    15
100
AcDbCircle
 10
-128.3642815620664
 20
41.60867416410622
 30
0.0
 40
0.1
  0
CIRCLE
  5
2F68
330
A
100
AcDbEntity
  8
001
  6
Continuous
370
    15
100
AcDbCircle
 10
-128.3642815620664
 20
41.66425749743948
 30
0.0
 40
0.0058333333333334
  0
CIRCLE
  5
2F69
330
A
100
AcDbEntity
  8
001
  6
Continuous
370
    15
100
AcDbCircle
 10
-128.3642815620664
 20
41.55309083077297
 30
0.0
 40
0.0058333333333333
  0
CIRCLE
  5
2F6A
330
A
100
AcDbEntity
  8
001
  6
Continuous
370
    15
100
AcDbCircle
 10
-128.4338648953997
 20
41.60867416410622
 30
0.0
 40
0.0058333333333333
  0
CIRCLE
  5
2F6B
330
A
100
AcDbEntity
  8
001
  6
Continuous
370
    15
100
AcDbCircle
 10
-128.2946982287329
 20
41.60867416410622
 30
0.0
 40
0.0058333333333333
  0
LINE
  5
2F6C
330
A
100
AcDbEntity
  8
001
  6
Continuous
370
    15
100
AcDbLine
 10
-128.4164896119099
 20
41.57367237954322
 30
0.0
 11
-128.3992833466294
 21
41.55646611426248
 31
0.0
  0
LINE
  5
2F6D
330
A
100
AcDbEntity
  8
001
  6
Continuous
370
    15
100
AcDbLine
 10
-128.4110684608134
 20
41.54468100318298
 30
0.0
 11
-128.4282747229897
 21
41.56188726535922
 31
0.0
  0
LINE
  5
2F6E
330
A
100
AcDbEntity
  8
001
  6
Continuous
370
    15
100
AcDbLine
 10
-128.4247391927701
 20
41.56542279868298
 30
0.0
 11
-128.4242001556817
 21
41.56488376159447
 31
0.0
  0
LINE
  5
2F6F
330
A
100
AcDbEntity
  8
001
  6
Continuous
370
    15
100
AcDbLine
 10
-128.4028188830577
 20
41.55293057783422
 30
0.0
 11
-128.4033579201462
 21
41.55346962113172
 31
0.0
  0
LINE
  5
2F70
330
A
100
AcDbEntity
  8
001
  6
Continuous
370
    15
100
AcDbLine
 10
-128.4194861050409
 20
41.56959780602623
 30
0.0
 11
-128.4200251483384
 21
41.57013684311498
 31
0.0
  0
LINE
  5
2F71
330
A
100
AcDbEntity
  8
001
  6
Continuous
370
    15
100
AcDbLine
 10
-128.4080719645782
 20
41.54875557049098
 30
0.0
 11
-128.4075329274894
 21
41.54821653340248
 31
0.0
  0
ARC
  5
2F72
330
A
100
AcDbEntity
  8
001
  6
Continuous
370
    15
100
AcDbCircle
 10
-128.4182573796969
 20
41.57190461148448
 30
0.0
 40
0.0025
100
AcDbArc
 50
45.0
 51
225.0
  0
ARC
  5
2F73
330
A
100
AcDbEntity
  8
001
  6
Continuous
370
    15
100
AcDbCircle
 10
-128.4093006938019
 20
41.54644876736172
 30
0.0
 40
0.0025
100
AcDbArc
 50
225.0000000002999
 51
45.0
  0
ARC
  5
2F74
330
A
100
AcDbEntity
  8
001
  6
Continuous
370
    15
100
AcDbCircle
 10
-128.4265069588107
 20
41.56365503237072
 30
0.0
 40
0.0025
100
AcDbArc
 50
45.0
 51
224.9999999997999
  0
ARC
  5
2F75
330
A
100
AcDbEntity
  8
001
  6
Continuous
370
    15
100
AcDbCircle
 10
-128.4010511146879
 20
41.55469834647572
 30
0.0
 40
0.0025
100
AcDbArc
 50
225.0
 51
44.9999999998
  0
SPLINE
  5
2F76
330
A
100
AcDbEntity
  8
001
  6
Continuous
370
    15
100
AcDbSpline
210
0.0
220
0.0
230
1.0
 70
     8
 71
     3
 72
     9
 73
     5
 74
     0
 42
0.0000000001
 43
0.0000000001
 40
0.0
 40
0.0
 40
0.0
 40
0.0
 40
0.2299618657390859
 40
1.0
 40
1.0
 40
1.0
 40
1.0
 10
-128.3351149076931
 20
41.61143199069343
 30
0.0
 10
-128.3351148581292
 20
41.61143201945125
 30
0.0
 10
-128.3351146425983
 20
41.61143214450595
 30
0.0
 10
-128.3351170039904
 20
41.61143078123258
 30
0.0
 10
-128.3351188223523
 20
41.61142973146009
 30
0.0
  0
LINE
  5
2F77
330
A
100
AcDbEntity
  8
001
  6
Continuous
370
    15
100
AcDbLine
 10
-128.3351188223524
 20
41.61142973145998
 30
0.0
 11
-128.3351148952754
 21
41.61131005825548
 31
0.0
  0
SPLINE
  5
2F78
330
A
100
AcDbEntity
  8
001
  6
Continuous
370
    15
100
AcDbSpline
210
0.0
220
0.0
230
1.0
 70
    24
 71
     3
 72
    11
 73
     7
 74
     0
 42
0.0000000001
 43
0.0000000001
 40
0.0
 40
0.0
 40
0.0
 40
0.0
 40
0.2502573234265926
 40
0.5000051707407113
 40
0.749914035648168
 40
1.0
 40
1.0
 40
1.0
 40
1.0
 10
-128.3351148952754
 20
41.60950749747915
 30
0.0
 10
-128.3351148952754
 20
41.6097140813153
 30
0.0
 10
-128.3351148952754
 20
41.61012682842235
 30
0.0
 10
-128.3351148952754
 20
41.61064482425944
 30
0.0
 10
-128.3351148952754
 20
41.61106803490432
 30
0.0
 10
-128.3351148952754
 20
41.61122936475727
 30
0.0
 10
-128.3351148952754
 20
41.61131005825548
 30
0.0
  0
LINE
  5
2F79
330
A
100
AcDbEntity
  8
001
  6
Continuous
370
    15
100
AcDbLine
 10
-128.3351188223524
 20
41.60950749747923
 30
0.0
 11
-128.3351148952754
 21
41.60950749747923
 31
0.0
  0
SPLINE
  5
2F7A
330
A
100
AcDbEntity
  8
001
  6
Continuous
370
    15
100
AcDbSpline
210
0.0
220
0.0
230
1.0
 70
     8
 71
     3
 72
    11
 73
     7
 74
     0
 42
0.0000000001
 43
0.0000000001
 40
0.0
 40
0.0
 40
0.0
 40
0.0
 40
0.3850082302919794
 40
0.5000000000002734
 40
0.6149917697080206
 40
1.0
 40
1.0
 40
1.0
 40
1.0
 10
-128.3351188223523
 20
41.60784083073333
 30
0.0
 10
-128.3351169701045
 20
41.60805472092135
 30
0.0
 10
-128.3351145646392
 20
41.60833249444825
 30
0.0
 10
-128.3351149865898
 20
41.60867416410624
 30
0.0
 10
-128.3351145646392
 20
41.60901583376424
 30
0.0
 10
-128.3351169701045
 20
41.60929360729113
 30
0.0
 10
-128.3351188223523
 20
41.60950749747915
 30
0.0
  0
LINE
  5
2F7B
330
A
100
AcDbEntity
  8
001
  6
Continuous
370
    15
100
AcDbLine
 10
-128.3351188223524
 20
41.60784083073322
 30
0.0
 11
-128.3351148952754
 21
41.60784083073322
 31
0.0
  0
SPLINE
  5
2F7C
330
A
100
AcDbEntity
  8
001
  6
Continuous
370
    15
100
AcDbSpline
210
0.0
220
0.0
230
1.0
 70
    24
 71
     3
 72
    11
 73
     7
 74
     0
 42
0.0000000001
 43
0.0000000001
 40
0.0
 40
0.0
 40
0.0
 40
0.0
 40
0.2502572073694558
 40
0.5000046536053315
 40
0.74991451578847
 40
1.0
 40
1.0
 40
1.0
 40
1.0
 10
-128.3351148952754
 20
41.60603826995701
 30
0.0
 10
-128.3351148952754
 20
41.60611897951838
 30
0.0
 10
-128.3351148952754
 20
41.60628023423987
 30
0.0
 10
-128.3351148952754
 20
41.60670371617309
 30
0.0
 10
-128.3351148952754
 20
41.60722171264931
 30
0.0
 10
-128.3351148952754
 20
41.60763440971908
 30
0.0
 10
-128.3351148952754
 20
41.60784083073333
 30
0.0
  0
LINE
  5
2F7D
330
A
100
AcDbEntity
  8
001
  6
Continuous
370
    15
100
AcDbLine
 10
-128.3351148952754
 20
41.60603826995697
 30
0.0
 11
-128.3351188223524
 21
41.60591859675248
 31
0.0
  0
SPLINE
  5
2F7E
330
A
100
AcDbEntity
  8
001
  6
Continuous
370
    15
100
AcDbSpline
210
0.0
220
0.0
230
1.0
 70
     8
 71
     3
 72
     9
 73
     5
 74
     0
 42
0.0000000001
 43
0.0000000001
 40
0.0
 40
0.0
 40
0.0
 40
0.0
 40
0.7700157830392395
 40
1.0
 40
1.0
 40
1.0
 40
1.0
 10
-128.3351188223523
 20
41.6059185967524
 30
0.0
 10
-128.3351170040058
 20
41.60591754698886
 30
0.0
 10
-128.3351146425653
 20
41.60591618368753
 30
0.0
 10
-128.3351148581191
 20
41.60591630875542
 30
0.0
 10
-128.3351149076931
 20
41.60591633751906
 30
0.0
  0
CIRCLE
  5
2F7F
330
A
100
AcDbEntity
  8
001
  6
Continuous
370
    15
100
AcDbCircle
 10
-128.3642815620664
 20
41.60867416410622
 30
0.0
 40
0.0040999999999751
  0
CIRCLE
  5
2F80
330
A
100
AcDbEntity
  8
001
  6
Continuous
370
    15
100
AcDbCircle
 10
-128.3642815620664
 20
41.60867416410622
 30
0.0
 40
0.0052666666666667
  0
CIRCLE
  5
2F81
330
A
100
AcDbEntity
  8
001
  6
Continuous
370
    15
100
AcDbCircle
 10
-128.3642815620664
 20
41.60867416410622
 30
0.0
 40
0.01025
  0
CIRCLE
  5
2F82
330
A
100
AcDbEntity
  8
001
  6
Continuous
370
    15
100
AcDbCircle
 10
-128.3642815620664
 20
41.60867416410622
 30
0.0
 40
0.025
  0
LINE
  5
2F83
330
A
100
AcDbEntity
  8
001
  6
Continuous
370
    15
100
AcDbLine
 10
-128.3759482290932
 20
41.63734083174648
 30
0.0
 11
-128.3731258948359
 21
41.63734083174648
 31
0.0
  0
LINE
  5
2F84
330
A
100
AcDbEntity
  8
001
  6
Continuous
370
    15
100
AcDbLine
 10
-128.3675981868549
 20
41.63734083174648
 30
0.0
 11
-128.3609649372777
 21
41.63734083174648
 31
0.0
  0
LINE
  5
2F85
330
A
100
AcDbEntity
  8
001
  6
Continuous
370
    15
100
AcDbLine
 10
-128.3554372292967
 20
41.63734083174648
 30
0.0
 11
-128.3526148950394
 21
41.63734083174648
 31
0.0
  0
LINE
  5
2F86
330
A
100
AcDbEntity
  8
001
  6
Continuous
370
    15
100
AcDbLine
 10
-128.3538491939219
 20
41.65144892520197
 30
0.0
 11
-128.3539577504334
 21
41.65140935020122
 31
0.0
  0
LINE
  5
2F87
330
A
100
AcDbEntity
  8
001
  6
Continuous
370
    15
100
AcDbLine
 10
-128.3746054350112
 20
41.65140868275347
 30
0.0
 11
-128.3747139853139
 21
41.65144829500698
 31
0.0
  0
SPLINE
  5
2F88
330
A
100
AcDbEntity
  8
001
  6
Continuous
370
    15
100
AcDbSpline
210
0.0
220
0.0
230
1.0
 70
     8
 71
     3
 72
     9
 73
     5
 74
     0
 42
0.0000000001
 43
0.0000000001
 40
0.0
 40
0.0
 40
0.0
 40
0.0
 40
0.9681075410681728
 40
1.0
 40
1.0
 40
1.0
 40
1.0
 10
-128.355697584403
 20
41.65306230496843
 30
0.0
 10
-128.3554961386082
 20
41.65306327398279
 30
0.0
 10
-128.3552880565654
 20
41.65306427491949
 30
0.0
 10
-128.3551196832129
 20
41.65295758114436
 30
0.0
 10
-128.3551143133727
 20
41.65295417841751
 30
0.0
  0
LINE
  5
2F89
330
A
100
AcDbEntity
  8
001
  6
Continuous
370
    15
100
AcDbLine
 10
-128.3728446121352
 20
41.65306677221248
 30
0.0
 11
-128.3733984572527
 21
41.65297080873422
 31
0.0
  0
SPLINE
  5
2F8A
330
A
100
AcDbEntity
  8
001
  6
Continuous
370
    15
100
AcDbSpline
210
0.0
220
0.0
230
1.0
 70
     8
 71
     3
 72
    11
 73
     7
 74
     0
 42
0.0000000001
 43
0.0000000001
 40
0.0
 40
0.0
 40
0.0
 40
0.0
 40
0.2508900057343472
 40
0.4862321996321201
 40
0.7289479396499197
 40
1.0
 40
1.0
 40
1.0
 40
1.0
 10
-128.3646091787441
 20
41.65557757751623
 30
0.0
 10
-128.3646080921142
 20
41.65557777895761
 30
0.0
 10
-128.3646059861936
 20
41.65557816935691
 30
0.0
 10
-128.3645989846805
 20
41.65557865558276
 30
0.0
 10
-128.3645893963611
 20
41.6555790210667
 30
0.0
 10
-128.3645817785753
 20
41.65557913893652
 30
0.0
 10
-128.3645777596069
 20
41.65557920112192
 30
0.0
  0
SPLINE
  5
2F8B
330
A
100
AcDbEntity
  8
001
  6
Continuous
370
    15
100
AcDbSpline
210
0.0
220
0.0
230
1.0
 70
     8
 71
     3
 72
    12
 73
     8
 74
     0
 42
0.0000000001
 43
0.0000000001
 40
0.0
 40
0.0
 40
0.0
 40
0.0
 40
0.2627317150263408
 40
0.3800264370876691
 40
0.4934523218922208
 40
0.7268768046993443
 40
1.0
 40
1.0
 40
1.0
 40
1.0
 10
-128.3639897985428
 20
41.65557921043514
 30
0.0
 10
-128.3639848611259
 20
41.65557917859213
 30
0.0
 10
-128.3639777194341
 20
41.65557913253303
 30
0.0
 10
-128.3639693851398
 20
41.65557890213241
 30
0.0
 10
-128.3639625364058
 20
41.6555786103431
 30
0.0
 10
-128.3639559640971
 20
41.6555780650714
 30
0.0
 10
-128.363954367948
 20
41.65557755670255
 30
0.0
 10
-128.3639535073274
 20
41.65557728259742
 30
0.0
  0
ELLIPSE
  5
2F8C
330
A
100
AcDbEntity
  8
001
  6
Continuous
370
    15
100
AcDbEllipse
 10
-128.3642815620664
 20
41.65297185493847
 30
0.0
 11
0.005143495332713
 21
0.0
 31
0.0
210
0.0
220
0.0
230
1.0
 40
0.0540541082
 41
0.0
 42
6.283185307179585
  0
SPLINE
  5
2F8D
330
A
100
AcDbEntity
  8
001
  6
Continuous
370
    15
100
AcDbSpline
210
0.0
220
0.0
230
1.0
 70
     8
 71
     3
 72
     9
 73
     5
 74
     0
 42
0.0000000001
 43
0.0000000001
 40
0.0
 40
0.0
 40
0.0
 40
0.0
 40
0.6282430620464045
 40
1.0
 40
1.0
 40
1.0
 40
1.0
 10
-128.3646091787441
 20
41.65557757751623
 30
0.0
 10
-128.3648171711761
 20
41.65556323929978
 30
0.0
 10
-128.3651482411786
 20
41.65554041657824
 30
0.0
 10
-128.3654146159051
 20
41.65535067322482
 30
0.0
 10
-128.3655136425577
 20
41.65528013481676
 30
0.0
  0
SPLINE
  5
2F8E
330
A
100
AcDbEntity
  8
001
  6
Continuous
370
    15
100
AcDbSpline
210
0.0
220
0.0
230
1.0
 70
     8
 71
     3
 72
     9
 73
     5
 74
     0
 42
0.0000000001
 43
0.0000000001
 40
0.0
 40
0.0
 40
0.0
 40
0.0
 40
0.3878517209994098
 40
1.0
 40
1.0
 40
1.0
 40
1.0
 10
-128.3630503501302
 20
41.65527869747559
 30
0.0
 10
-128.3631537934543
 20
41.65535229467743
 30
0.0
 10
-128.3634205018856
 20
41.65554205070495
 30
0.0
 10
-128.3637511200109
 20
41.65556390470742
 30
0.0
 10
-128.3639535073274
 20
41.65557728259742
 30
0.0
  0
ARC
  5
2F8F
330
A
100
AcDbEntity
  8
001
  6
Continuous
370
    15
100
AcDbCircle
 10
-128.3646349014749
 20
41.65403223823147
 30
0.0
 40
0.0015454484312218
100
AcDbArc
 50
89.06589083840001
 51
119.1056717788999
  0
LINE
  5
2F90
330
A
100
AcDbEntity
  8
001
  6
Continuous
370
    15
100
AcDbLine
 10
-128.3645729615009
 20
41.65558164118698
 30
0.0
 11
-128.3645777596069
 21
41.65557920112198
 31
0.0
  0
LINE
  5
2F91
330
A
100
AcDbEntity
  8
001
  6
Continuous
370
    15
100
AcDbLine
 10
-128.3639897985427
 20
41.65558164118698
 30
0.0
 11
-128.3639897985427
 21
41.65557921043522
 31
0.0
  0
LINE
  5
2F92
330
A
100
AcDbEntity
  8
001
  6
Continuous
370
    15
100
AcDbLine
 10
-128.3568317723174
 20
41.60780777324448
 30
0.0
 11
-128.3569055788554
 21
41.60789891707973
 31
0.0
  0
ARC
  5
2F93
330
A
100
AcDbEntity
  8
001
  6
Continuous
370
    15
100
AcDbCircle
 10
-128.3642815620664
 20
41.60867416410622
 30
0.0
 40
0.0075000000000018
100
AcDbArc
 50
342.6335481145999
 51
353.3664518855
  0
LINE
  5
2F94
330
A
100
AcDbEntity
  8
001
  6
Continuous
370
    15
100
AcDbLine
 10
-128.3572279452992
 20
41.60638230497872
 30
0.0
 11
-128.3571234478019
 21
41.60643554907823
 31
0.0
  0
LINE
  5
2F95
330
A
100
AcDbEntity
  8
001
  6
Continuous
370
    15
100
AcDbLine
 10
-128.3571747008114
 20
41.60627780767547
 30
0.0
 11
-128.3572279452992
 21
41.60638230497872
 31
0.0
  0
ARC
  5
2F96
330
A
100
AcDbEntity
  8
001
  6
Continuous
370
    15
100
AcDbCircle
 10
-128.3642815620664
 20
41.60867416410622
 30
0.0
 40
0.0075000000000019
100
AcDbArc
 50
330.6335481146
 51
341.3664518855
  0
ARC
  5
2F97
330
A
100
AcDbEntity
  8
001
  6
Continuous
370
    15
100
AcDbCircle
 10
-128.3642815620664
 20
41.60867416410622
 30
0.0
 40
0.0075000000000015
100
AcDbArc
 50
318.6335481146
 51
329.3664518855
  0
LINE
  5
2F98
330
A
100
AcDbEntity
  8
001
  6
Continuous
370
    15
100
AcDbLine
 10
-128.3587699453992
 20
41.60371148215822
 30
0.0
 11
-128.3586528257647
 21
41.60371761996223
 31
0.0
  0
LINE
  5
2F99
330
A
100
AcDbEntity
  8
001
  6
Continuous
370
    15
100
AcDbLine
 10
-128.3587638072074
 20
41.60359436252373
 30
0.0
 11
-128.3587699453992
 21
41.60371148215822
 31
0.0
  0
ARC
  5
2F9A
330
A
100
AcDbEntity
  8
001
  6
Continuous
370
    15
100
AcDbCircle
 10
-128.3642815620664
 20
41.60867416410622
 30
0.0
 40
0.0075000000000016
100
AcDbArc
 50
306.6335481145999
 51
317.3664518854999
  0
LINE
  5
2F9B
330
A
100
AcDbEntity
  8
001
  6
Continuous
370
    15
100
AcDbLine
 10
-128.3599221870016
 20
41.60267399889947
 30
0.0
 11
-128.3598063506522
 21
41.60265565223297
 31
0.0
  0
LINE
  5
2F9C
330
A
100
AcDbEntity
  8
001
  6
Continuous
370
    15
100
AcDbLine
 10
-128.3599405336684
 20
41.60255816293797
 30
0.0
 11
-128.3599221870016
 21
41.60267399889947
 31
0.0
  0
ARC
  5
2F9D
330
A
100
AcDbEntity
  8
001
  6
Continuous
370
    15
100
AcDbCircle
 10
-128.3642815620664
 20
41.60867416410622
 30
0.0
 40
0.0075000000000014
100
AcDbArc
 50
294.6335481145999
 51
305.3664518855
  0
LINE
  5
2F9E
330
A
100
AcDbEntity
  8
001
  6
Continuous
370
    15
100
AcDbLine
 10
-128.3612649543079
 20
41.60189875201872
 30
0.0
 11
-128.3611554637577
 21
41.60185672220698
 31
0.0
  0
LINE
  5
2F9F
330
A
100
AcDbEntity
  8
001
  6
Continuous
370
    15
100
AcDbLine
 10
-128.3613069837317
 20
41.60178926185622
 30
0.0
 11
-128.3612649543079
 21
41.60189875201872
 31
0.0
  0
ARC
  5
2FA0
330
A
100
AcDbEntity
  8
001
  6
Continuous
370
    15
100
AcDbCircle
 10
-128.3642815620664
 20
41.60867416410622
 30
0.0
 40
0.0075000000000016
100
AcDbArc
 50
282.6335481145999
 51
293.3664518855
  0
LINE
  5
2FA1
330
A
100
AcDbEntity
  8
001
  6
Continuous
370
    15
100
AcDbLine
 10
-128.3627395617721
 20
41.60141962303073
 30
0.0
 11
-128.3626412022729
 21
41.60135574749598
 31
0.0
  0
LINE
  5
2FA2
330
A
100
AcDbEntity
  8
001
  6
Continuous
370
    15
100
AcDbLine
 10
-128.3628034371131
 20
41.60132126372547
 30
0.0
 11
-128.3627395617721
 21
41.60141962303073
 31
0.0
  0
ARC
  5
2FA3
330
A
100
AcDbEntity
  8
001
  6
Continuous
370
    15
100
AcDbCircle
 10
-128.3642815620664
 20
41.60867416410622
 30
0.0
 40
0.0075000000000017
100
AcDbArc
 50
270.6335481146
 51
281.3664518855
  0
LINE
  5
2FA4
330
A
100
AcDbEntity
  8
001
  6
Continuous
370
    15
100
AcDbLine
 10
-128.3642815620664
 20
41.60125755194798
 30
0.0
 11
-128.3641986325022
 21
41.60117462232948
 31
0.0
  0
LINE
  5
2FA5
330
A
100
AcDbEntity
  8
001
  6
Continuous
370
    15
100
AcDbLine
 10
-128.3643644916304
 20
41.60117462232948
 30
0.0
 11
-128.3642815620664
 21
41.60125755194798
 31
0.0
  0
ARC
  5
2FA6
330
A
100
AcDbEntity
  8
001
  6
Continuous
370
    15
100
AcDbCircle
 10
-128.3642815620664
 20
41.60867416410622
 30
0.0
 40
0.0075000000000016
100
AcDbArc
 50
258.6335481145999
 51
269.3664518854999
  0
LINE
  5
2FA7
330
A
100
AcDbEntity
  8
001
  6
Continuous
370
    15
100
AcDbLine
 10
-128.3658235623604
 20
41.60141962303073
 30
0.0
 11
-128.3657596870194
 21
41.60132126372547
 31
0.0
  0
LINE
  5
2FA8
330
A
100
AcDbEntity
  8
001
  6
Continuous
370
    15
100
AcDbLine
 10
-128.3659219218597
 20
41.60135574749598
 30
0.0
 11
-128.3658235623604
 21
41.60141962303073
 31
0.0
  0
ARC
  5
2FA9
330
A
100
AcDbEntity
  8
001
  6
Continuous
370
    15
100
AcDbCircle
 10
-128.3642815620664
 20
41.60867416410622
 30
0.0
 40
0.0075000000000017
100
AcDbArc
 50
246.6335481145999
 51
257.3664518855
  0
LINE
  5
2FAA
330
A
100
AcDbEntity
  8
001
  6
Continuous
370
    15
100
AcDbLine
 10
-128.3672981698247
 20
41.60189875201872
 30
0.0
 11
-128.3672561404009
 21
41.60178926185622
 31
0.0
  0
LINE
  5
2FAB
330
A
100
AcDbEntity
  8
001
  6
Continuous
370
    15
100
AcDbLine
 10
-128.3674076603749
 20
41.60185672220698
 30
0.0
 11
-128.3672981698247
 21
41.60189875201872
 31
0.0
  0
ARC
  5
2FAC
330
A
100
AcDbEntity
  8
001
  6
Continuous
370
    15
100
AcDbCircle
 10
-128.3642815620664
 20
41.60867416410622
 30
0.0
 40
0.0075000000000019
100
AcDbArc
 50
234.6335481146
 51
245.3664518855
  0
LINE
  5
2FAD
330
A
100
AcDbEntity
  8
001
  6
Continuous
370
    15
100
AcDbLine
 10
-128.3686409371309
 20
41.60267399889947
 30
0.0
 11
-128.3686225904642
 21
41.60255816293797
 31
0.0
  0
LINE
  5
2FAE
330
A
100
AcDbEntity
  8
001
  6
Continuous
370
    15
100
AcDbLine
 10
-128.3687567734804
 20
41.60265565223297
 30
0.0
 11
-128.3686409371309
 21
41.60267399889947
 31
0.0
  0
ARC
  5
2FAF
330
A
100
AcDbEntity
  8
001
  6
Continuous
370
    15
100
AcDbCircle
 10
-128.3642815620664
 20
41.60867416410622
 30
0.0
 40
0.0075000000000015
100
AcDbArc
 50
222.6335481146
 51
233.3664518855
  0
LINE
  5
2FB0
330
A
100
AcDbEntity
  8
001
  6
Continuous
370
    15
100
AcDbLine
 10
-128.3697931787334
 20
41.60371148215822
 30
0.0
 11
-128.3697993169252
 21
41.60359436252373
 31
0.0
  0
LINE
  5
2FB1
330
A
100
AcDbEntity
  8
001
  6
Continuous
370
    15
100
AcDbLine
 10
-128.3699102983679
 20
41.60371761996223
 30
0.0
 11
-128.3697931787334
 21
41.60371148215822
 31
0.0
  0
ARC
  5
2FB2
330
A
100
AcDbEntity
  8
001
  6
Continuous
370
    15
100
AcDbCircle
 10
-128.3642815620664
 20
41.60867416410622
 30
0.0
 40
0.0075000000000015
100
AcDbArc
 50
210.6335481145999
 51
221.3664518854999
  0
LINE
  5
2FB3
330
A
100
AcDbEntity
  8
001
  6
Continuous
370
    15
100
AcDbLine
 10
-128.3707045364684
 20
41.60496585802722
 30
0.0
 11
-128.3707348905994
 21
41.60485257427747
 31
0.0
  0
LINE
  5
2FB4
330
A
100
AcDbEntity
  8
001
  6
Continuous
370
    15
100
AcDbLine
 10
-128.3708178206062
 20
41.60499621254622
 30
0.0
 11
-128.3707045364684
 21
41.60496585802722
 31
0.0
  0
ARC
  5
2FB5
330
A
100
AcDbEntity
  8
001
  6
Continuous
370
    15
100
AcDbCircle
 10
-128.3642815620664
 20
41.60867416410622
 30
0.0
 40
0.0075000000000018
100
AcDbArc
 50
198.6335481145999
 51
209.3664518854999
  0
LINE
  5
2FB6
330
A
100
AcDbEntity
  8
001
  6
Continuous
370
    15
100
AcDbLine
 10
-128.3713351788334
 20
41.60638230497872
 30
0.0
 11
-128.3713884233212
 21
41.60627780767547
 31
0.0
  0
LINE
  5
2FB7
330
A
100
AcDbEntity
  8
001
  6
Continuous
370
    15
100
AcDbLine
 10
-128.3714396763307
 20
41.60643554907823
 30
0.0
 11
-128.3713351788334
 21
41.60638230497872
 31
0.0
  0
ARC
  5
2FB8
330
A
100
AcDbEntity
  8
001
  6
Continuous
370
    15
100
AcDbCircle
 10
-128.3642815620664
 20
41.60867416410622
 30
0.0
 40
0.0075000000000017
100
AcDbArc
 50
186.6335481145999
 51
197.3664518854999
  0
LINE
  5
2FB9
330
A
100
AcDbEntity
  8
001
  6
Continuous
370
    15
100
AcDbLine
 10
-128.3716575452771
 20
41.60789891707973
 30
0.0
 11
-128.3717313518152
 21
41.60780777324448
 31
0.0
  0
LINE
  5
2FBA
330
A
100
AcDbEntity
  8
001
  6
Continuous
370
    15
100
AcDbLine
 10
-128.3717486891609
 20
41.60797272381173
 30
0.0
 11
-128.3716575452771
 21
41.60789891707973
 31
0.0
  0
ARC
  5
2FBB
330
A
100
AcDbEntity
  8
001
  6
Continuous
370
    15
100
AcDbCircle
 10
-128.3642815620664
 20
41.60867416410622
 30
0.0
 40
0.0075000000000016
100
AcDbArc
 50
174.6335481145999
 51
185.3664518854999
  0
LINE
  5
2FBC
330
A
100
AcDbEntity
  8
001
  6
Continuous
370
    15
100
AcDbLine
 10
-128.3716575452771
 20
41.60944941113273
 30
0.0
 11
-128.3717486891609
 21
41.60937560440072
 31
0.0
  0
LINE
  5
2FBD
330
A
100
AcDbEntity
  8
001
  6
Continuous
370
    15
100
AcDbLine
 10
-128.3717313518152
 20
41.60954055496797
 30
0.0
 11
-128.3716575452771
 21
41.60944941113273
 31
0.0
  0
ARC
  5
2FBE
330
A
100
AcDbEntity
  8
001
  6
Continuous
370
    15
100
AcDbCircle
 10
-128.3642815620664
 20
41.60867416410622
 30
0.0
 40
0.0075000000000018
100
AcDbArc
 50
162.6335481146
 51
173.3664518854999
  0
LINE
  5
2FBF
330
A
100
AcDbEntity
  8
001
  6
Continuous
370
    15
100
AcDbLine
 10
-128.3713351788334
 20
41.61096602323373
 30
0.0
 11
-128.3714396763307
 21
41.61091277913422
 31
0.0
  0
LINE
  5
2FC0
330
A
100
AcDbEntity
  8
001
  6
Continuous
370
    15
100
AcDbLine
 10
-128.3713884233212
 20
41.61107052053697
 30
0.0
 11
-128.3713351788334
 21
41.61096602323373
 31
0.0
  0
ARC
  5
2FC1
330
A
100
AcDbEntity
  8
001
  6
Continuous
370
    15
100
AcDbCircle
 10
-128.3642815620664
 20
41.60867416410622
 30
0.0
 40
0.0075000000000018
100
AcDbArc
 50
150.6335481145999
 51
161.3664518855
  0
ARC
  5
2FC2
330
A
100
AcDbEntity
  8
001
  6
Continuous
370
    15
100
AcDbCircle
 10
-128.3642815620664
 20
41.60867416410622
 30
0.0
 40
0.0075000000000015
100
AcDbArc
 50
138.6335481146
 51
149.3664518854999
  0
LINE
  5
2FC3
330
A
100
AcDbEntity
  8
001
  6
Continuous
370
    15
100
AcDbLine
 10
-128.3697931787334
 20
41.61363684605422
 30
0.0
 11
-128.3699102983679
 21
41.61363070825022
 31
0.0
  0
LINE
  5
2FC4
330
A
100
AcDbEntity
  8
001
  6
Continuous
370
    15
100
AcDbLine
 10
-128.3697993169252
 20
41.61375396568873
 30
0.0
 11
-128.3697931787334
 21
41.61363684605422
 31
0.0
  0
ARC
  5
2FC5
330
A
100
AcDbEntity
  8
001
  6
Continuous
370
    15
100
AcDbCircle
 10
-128.3642815620664
 20
41.60867416410622
 30
0.0
 40
0.0075000000000016
100
AcDbArc
 50
126.6335481145999
 51
137.3664518855
  0
LINE
  5
2FC6
330
A
100
AcDbEntity
  8
001
  6
Continuous
370
    15
100
AcDbLine
 10
-128.3686409371309
 20
41.61467432931297
 30
0.0
 11
-128.3687567734804
 21
41.61469267597972
 31
0.0
  0
LINE
  5
2FC7
330
A
100
AcDbEntity
  8
001
  6
Continuous
370
    15
100
AcDbLine
 10
-128.3686225904642
 20
41.61479016527447
 30
0.0
 11
-128.3686409371309
 21
41.61467432931297
 31
0.0
  0
ARC
  5
2FC8
330
A
100
AcDbEntity
  8
001
  6
Continuous
370
    15
100
AcDbCircle
 10
-128.3642815620664
 20
41.60867416410622
 30
0.0
 40
0.0075000000000014
100
AcDbArc
 50
114.6335481145999
 51
125.3664518855
  0
LINE
  5
2FC9
330
A
100
AcDbEntity
  8
001
  6
Continuous
370
    15
100
AcDbLine
 10
-128.3672981698247
 20
41.61544957619398
 30
0.0
 11
-128.3674076603749
 21
41.61549160600547
 31
0.0
  0
LINE
  5
2FCA
330
A
100
AcDbEntity
  8
001
  6
Continuous
370
    15
100
AcDbLine
 10
-128.3672561404009
 20
41.61555906635622
 30
0.0
 11
-128.3672981698247
 21
41.61544957619398
 31
0.0
  0
ARC
  5
2FCB
330
A
100
AcDbEntity
  8
001
  6
Continuous
370
    15
100
AcDbCircle
 10
-128.3642815620664
 20
41.60867416410622
 30
0.0
 40
0.0075000000000016
100
AcDbArc
 50
102.6335481145999
 51
113.3664518855
  0
LINE
  5
2FCC
330
A
100
AcDbEntity
  8
001
  6
Continuous
370
    15
100
AcDbLine
 10
-128.3658235623604
 20
41.61592870518172
 30
0.0
 11
-128.3659219218597
 21
41.61599258071673
 31
0.0
  0
LINE
  5
2FCD
330
A
100
AcDbEntity
  8
001
  6
Continuous
370
    15
100
AcDbLine
 10
-128.3657596870194
 20
41.61602706448722
 30
0.0
 11
-128.3658235623604
 21
41.61592870518172
 31
0.0
  0
ARC
  5
2FCE
330
A
100
AcDbEntity
  8
001
  6
Continuous
370
    15
100
AcDbCircle
 10
-128.3642815620664
 20
41.60867416410622
 30
0.0
 40
0.0075000000000017
100
AcDbArc
 50
90.63354811459998
 51
101.3664518854999
  0
LINE
  5
2FCF
330
A
100
AcDbEntity
  8
001
  6
Continuous
370
    15
100
AcDbLine
 10
-128.3642815620664
 20
41.61609077626447
 30
0.0
 11
-128.3643644916304
 21
41.61617370588323
 31
0.0
  0
LINE
  5
2FD0
330
A
100
AcDbEntity
  8
001
  6
Continuous
370
    15
100
AcDbLine
 10
-128.3641986325022
 20
41.61617370588323
 30
0.0
 11
-128.3642815620664
 21
41.61609077626447
 31
0.0
  0
ARC
  5
2FD1
330
A
100
AcDbEntity
  8
001
  6
Continuous
370
    15
100
AcDbCircle
 10
-128.3642815620664
 20
41.60867416410622
 30
0.0
 40
0.0075000000000016
100
AcDbArc
 50
78.6335481146
 51
89.3664518855
  0
LINE
  5
2FD2
330
A
100
AcDbEntity
  8
001
  6
Continuous
370
    15
100
AcDbLine
 10
-128.3627395617721
 20
41.61592870518172
 30
0.0
 11
-128.3628034371131
 21
41.61602706448722
 31
0.0
  0
LINE
  5
2FD3
330
A
100
AcDbEntity
  8
001
  6
Continuous
370
    15
100
AcDbLine
 10
-128.3626412022729
 20
41.61599258071673
 30
0.0
 11
-128.3627395617721
 21
41.61592870518172
 31
0.0
  0
ARC
  5
2FD4
330
A
100
AcDbEntity
  8
001
  6
Continuous
370
    15
100
AcDbCircle
 10
-128.3642815620664
 20
41.60867416410622
 30
0.0
 40
0.0075000000000017
100
AcDbArc
 50
66.6335481146
 51
77.36645188549999
  0
LINE
  5
2FD5
330
A
100
AcDbEntity
  8
001
  6
Continuous
370
    15
100
AcDbLine
 10
-128.3612649543079
 20
41.61544957619398
 30
0.0
 11
-128.3613069837317
 21
41.61555906635622
 31
0.0
  0
LINE
  5
2FD6
330
A
100
AcDbEntity
  8
001
  6
Continuous
370
    15
100
AcDbLine
 10
-128.3611554637577
 20
41.61549160600547
 30
0.0
 11
-128.3612649543079
 21
41.61544957619398
 31
0.0
  0
ARC
  5
2FD7
330
A
100
AcDbEntity
  8
001
  6
Continuous
370
    15
100
AcDbCircle
 10
-128.3642815620664
 20
41.60867416410622
 30
0.0
 40
0.0075000000000019
100
AcDbArc
 50
54.6335481146
 51
65.3664518855
  0
LINE
  5
2FD8
330
A
100
AcDbEntity
  8
001
  6
Continuous
370
    15
100
AcDbLine
 10
-128.3599221870016
 20
41.61467432931297
 30
0.0
 11
-128.3599405336684
 21
41.61479016527447
 31
0.0
  0
LINE
  5
2FD9
330
A
100
AcDbEntity
  8
001
  6
Continuous
370
    15
100
AcDbLine
 10
-128.3598063506522
 20
41.61469267597972
 30
0.0
 11
-128.3599221870016
 21
41.61467432931297
 31
0.0
  0
ARC
  5
2FDA
330
A
100
AcDbEntity
  8
001
  6
Continuous
370
    15
100
AcDbCircle
 10
-128.3642815620664
 20
41.60867416410622
 30
0.0
 40
0.0075000000000015
100
AcDbArc
 50
42.63354811460001
 51
53.3664518855
  0
LINE
  5
2FDB
330
A
100
AcDbEntity
  8
001
  6
Continuous
370
    15
100
AcDbLine
 10
-128.3587699453992
 20
41.61363684605422
 30
0.0
 11
-128.3587638072074
 21
41.61375396568873
 31
0.0
  0
LINE
  5
2FDC
330
A
100
AcDbEntity
  8
001
  6
Continuous
370
    15
100
AcDbLine
 10
-128.3586528257647
 20
41.61363070825022
 30
0.0
 11
-128.3587699453992
 21
41.61363684605422
 31
0.0
  0
ARC
  5
2FDD
330
A
100
AcDbEntity
  8
001
  6
Continuous
370
    15
100
AcDbCircle
 10
-128.3642815620664
 20
41.60867416410622
 30
0.0
 40
0.0075000000000015
100
AcDbArc
 50
30.63354811460001
 51
41.3664518855
  0
LINE
  5
2FDE
330
A
100
AcDbEntity
  8
001
  6
Continuous
370
    15
100
AcDbLine
 10
-128.3578585876642
 20
41.61238247018547
 30
0.0
 11
-128.3578282335332
 21
41.61249575393497
 31
0.0
  0
LINE
  5
2FDF
330
A
100
AcDbEntity
  8
001
  6
Continuous
370
    15
100
AcDbLine
 10
-128.3577453035264
 20
41.61235211566622
 30
0.0
 11
-128.3578585876642
 21
41.61238247018547
 31
0.0
  0
ARC
  5
2FE0
330
A
100
AcDbEntity
  8
001
  6
Continuous
370
    15
100
AcDbCircle
 10
-128.3642815620664
 20
41.60867416410622
 30
0.0
 40
0.0075000000000018
100
AcDbArc
 50
18.63354811460001
 51
29.36645188549999
  0
LINE
  5
2FE1
330
A
100
AcDbEntity
  8
001
  6
Continuous
370
    15
100
AcDbLine
 10
-128.3572279452992
 20
41.61096602323373
 30
0.0
 11
-128.3571747008114
 21
41.61107052053697
 31
0.0
  0
LINE
  5
2FE2
330
A
100
AcDbEntity
  8
001
  6
Continuous
370
    15
100
AcDbLine
 10
-128.3571234478019
 20
41.61091277913422
 30
0.0
 11
-128.3572279452992
 21
41.61096602323373
 31
0.0
  0
ARC
  5
2FE3
330
A
100
AcDbEntity
  8
001
  6
Continuous
370
    15
100
AcDbCircle
 10
-128.3642815620664
 20
41.60867416410622
 30
0.0
 40
0.0075000000000017
100
AcDbArc
 50
6.633548114600001
 51
17.36645188549999
  0
LINE
  5
2FE4
330
A
100
AcDbEntity
  8
001
  6
Continuous
370
    15
100
AcDbLine
 10
-128.3569055788554
 20
41.60944941113273
 30
0.0
 11
-128.3568317723174
 21
41.60954055496797
 31
0.0
  0
LINE
  5
2FE5
330
A
100
AcDbEntity
  8
001
  6
Continuous
370
    15
100
AcDbLine
 10
-128.3568144349717
 20
41.60937560440072
 30
0.0
 11
-128.3569055788554
 21
41.60944941113273
 31
0.0
  0
ARC
  5
2FE6
330
A
100
AcDbEntity
  8
001
  6
Continuous
370
    15
100
AcDbCircle
 10
-128.3642815620664
 20
41.60867416410622
 30
0.0
 40
0.0074999999999867
100
AcDbArc
 50
354.6335481144999
 51
5.3664518855
  0
LINE
  5
2FE7
330
A
100
AcDbEntity
  8
001
  6
Continuous
370
    15
100
AcDbLine
 10
-128.3569055788554
 20
41.60789891707973
 30
0.0
 11
-128.3568144349717
 21
41.60797272381173
 31
0.0
  0
CIRCLE
  5
2FE8
330
A
100
AcDbEntity
  8
001
  6
Continuous
370
    15
100
AcDbCircle
 10
-128.3642815620664
 20
41.60867416410622
 30
0.0
 40
0.0053333333333209
  0
LINE
  5
2FE9
330
A
100
AcDbEntity
  8
001
  6
Continuous
370
    15
100
AcDbLine
 10
-128.3578282335332
 20
41.60485257427747
 30
0.0
 11
-128.3578585876642
 21
41.60496585802722
 31
0.0
  0
LINE
  5
2FEA
330
A
100
AcDbEntity
  8
001
  6
Continuous
370
    15
100
AcDbLine
 10
-128.3707045364684
 20
41.61238247018547
 30
0.0
 11
-128.3708178206062
 21
41.61235211566622
 31
0.0
  0
LINE
  5
2FEB
330
A
100
AcDbEntity
  8
001
  6
Continuous
370
    15
100
AcDbLine
 10
-128.3707348905994
 20
41.61249575393497
 30
0.0
 11
-128.3707045364684
 21
41.61238247018547
 31
0.0
  0
LINE
  5
2FEC
330
A
100
AcDbEntity
  8
001
  6
Continuous
370
    15
100
AcDbLine
 10
-128.3578585876642
 20
41.60496585802722
 30
0.0
 11
-128.3577453035264
 21
41.60499621254622
 31
0.0
  0
CIRCLE
  5
2FED
330
A
100
AcDbEntity
  8
001
  6
Continuous
370
    15
100
AcDbCircle
 10
-128.3642815620664
 20
41.60867416410622
 30
0.0
 40
0.0099126980762716
  0
CIRCLE
  5
2FEE
330
A
100
AcDbEntity
  8
001
  6
Continuous
370
    15
100
AcDbCircle
 10
-128.3642815620664
 20
41.60867416410622
 30
0.0
 40
0.0075
  0
CIRCLE
  5
2FEF
330
A
100
AcDbEntity
  8
001
  6
Continuous
370
    15
100
AcDbCircle
 10
-128.3642815620664
 20
41.60867416410622
 30
0.0
 40
0.0099999999999944
  0
CIRCLE
  5
2FF0
330
A
100
AcDbEntity
  8
001
  6
Continuous
370
    15
100
AcDbCircle
 10
-128.3642815620664
 20
41.60867416410622
 30
0.0
 40
0.0253198415389918
  0
CIRCLE
  5
2FF1
330
A
100
AcDbEntity
  8
001
  6
Continuous
370
    15
100
AcDbCircle
 10
-128.3642815620664
 20
41.60867416410622
 30
0.0
 40
0.0252500000000082
  0
SPLINE
  5
2FF2
330
A
100
AcDbEntity
  8
001
  6
Continuous
370
    15
100
AcDbSpline
210
0.0
220
0.0
230
1.0
 70
     8
 71
     3
 72
     9
 73
     5
 74
     0
 42
0.0000000001
 43
0.0000000001
 40
0.0
 40
0.0
 40
0.0
 40
0.0
 40
0.3772652506090204
 40
1.0
 40
1.0
 40
1.0
 40
1.0
 10
-128.3807046968204
 20
41.58356877465029
 30
0.0
 10
-128.3807516968817
 20
41.58360328125546
 30
0.0
 10
-128.3808762778263
 20
41.5836947463589
 30
0.0
 10
-128.3809545346986
 20
41.58382927678861
 30
0.0
 10
-128.3810032679724
 20
41.58391305356204
 30
0.0
  0
ARC
  5
2FF3
330
A
100
AcDbEntity
  8
001
  6
Continuous
370
    15
100
AcDbCircle
 10
-128.3642815620664
 20
41.60867416410622
 30
0.0
 40
0.029999999999942
100
AcDbArc
 50
236.8085841709
 51
258.1914154734
  0
ARC
  5
2FF4
330
A
100
AcDbEntity
  8
001
  6
Continuous
370
    15
100
AcDbCircle
 10
-128.3642815620664
 20
41.60867416410622
 30
0.0
 40
0.029999999999942
100
AcDbArc
 50
146.8085841708999
 51
168.1914154733999
  0
ARC
  5
2FF5
330
A
100
AcDbEntity
  8
001
  6
Continuous
370
    15
100
AcDbCircle
 10
-128.3642815620664
 20
41.60867416410622
 30
0.0
 40
0.029999999999942
100
AcDbArc
 50
191.8085841708999
 51
213.1914154734
  0
SPLINE
  5
2FF6
330
A
100
AcDbEntity
  8
001
  6
Continuous
370
    15
100
AcDbSpline
210
0.0
220
0.0
230
1.0
 70
     8
 71
     3
 72
     9
 73
     5
 74
     0
 42
0.0000000001
 43
0.0000000001
 40
0.0
 40
0.0
 40
0.0
 40
0.0
 40
0.3772913813349468
 40
1.0
 40
1.0
 40
1.0
 40
1.0
 10
-128.3936466626537
 20
41.60253488297802
 30
0.0
 10
-128.3936554965587
 20
41.60259251656312
 30
0.0
 10
-128.3936789105707
 20
41.60274527272973
 30
0.0
 10
-128.3936391280143
 20
41.60289572577591
 30
0.0
 10
-128.3936143550736
 20
41.60298941418446
 30
0.0
  0
SPLINE
  5
2FF7
330
A
100
AcDbEntity
  8
001
  6
Continuous
370
    15
100
AcDbSpline
210
0.0
220
0.0
230
1.0
 70
     8
 71
     3
 72
     9
 73
     5
 74
     0
 42
0.0000000001
 43
0.0000000001
 40
0.0
 40
0.0
 40
0.0
 40
0.0
 40
0.3772913813349468
 40
1.0
 40
1.0
 40
1.0
 40
1.0
 10
-128.3581422809381
 20
41.57930906351883
 30
0.0
 10
-128.3581999145232
 20
41.5793002296139
 30
0.0
 10
-128.3583526706898
 20
41.57927681560188
 30
0.0
 10
-128.3585031237359
 20
41.57931659815823
 30
0.0
 10
-128.3585968121445
 20
41.57934137109895
 30
0.0
  0
ARC
  5
2FF8
330
A
100
AcDbEntity
  8
001
  6
Continuous
370
    15
100
AcDbCircle
 10
-128.3642815620664
 20
41.60867416410622
 30
0.0
 40
0.029999999999942
100
AcDbArc
 50
281.8085841709
 51
303.1914154733999
  0
SPLINE
  5
2FF9
330
A
100
AcDbEntity
  8
001
  6
Continuous
370
    15
100
AcDbSpline
210
0.0
220
0.0
230
1.0
 70
     8
 71
     3
 72
     9
 73
     5
 74
     0
 42
0.0000000001
 43
0.0000000001
 40
0.0
 40
0.0
 40
0.0
 40
0.0
 40
0.3772913813349468
 40
1.0
 40
1.0
 40
1.0
 40
1.0
 10
-128.3704208431945
 20
41.63803926469365
 30
0.0
 10
-128.3703632096094
 20
41.63804809859859
 30
0.0
 10
-128.3702104534428
 20
41.6380715126106
 30
0.0
 10
-128.3700600003966
 20
41.63803173005425
 30
0.0
 10
-128.3699663119881
 20
41.63800695711354
 30
0.0
  0
ARC
  5
2FFA
330
A
100
AcDbEntity
  8
001
  6
Continuous
370
    15
100
AcDbCircle
 10
-128.3642815620664
 20
41.60867416410622
 30
0.0
 40
0.029999999999942
100
AcDbArc
 50
101.8085841708999
 51
123.1914154734
  0
ARC
  5
2FFB
330
A
100
AcDbEntity
  8
001
  6
Continuous
370
    15
100
AcDbCircle
 10
-128.3642815620664
 20
41.60867416410622
 30
0.0
 40
0.0300000000000065
100
AcDbArc
 50
56.80851360310001
 51
78.19148639689998
  0
SPLINE
  5
2FFC
330
A
100
AcDbEntity
  8
001
  6
Continuous
370
    15
100
AcDbSpline
210
0.0
220
0.0
230
1.0
 70
     8
 71
     3
 72
     9
 73
     5
 74
     0
 42
0.0000000001
 43
0.0000000001
 40
0.0
 40
0.0
 40
0.0
 40
0.0
 40
0.3773216397684828
 40
1.0
 40
1.0
 40
1.0
 40
1.0
 10
-128.3478583947159
 20
41.63377953338354
 30
0.0
 10
-128.3478113967496
 20
41.63374502458085
 30
0.0
 10
-128.3476868399753
 20
41.63365356732249
 30
0.0
 10
-128.3476085928942
 20
41.63351906030415
 30
0.0
 10
-128.34755987013
 20
41.63343530569453
 30
0.0
  0
ARC
  5
2FFD
330
A
100
AcDbEntity
  8
001
  6
Continuous
370
    15
100
AcDbCircle
 10
-128.3642815620664
 20
41.60867416410622
 30
0.0
 40
0.029999999999942
100
AcDbArc
 50
11.80858417089999
 51
33.1914154734
  0
SPLINE
  5
2FFE
330
A
100
AcDbEntity
  8
001
  6
Continuous
370
    15
100
AcDbSpline
210
0.0
220
0.0
230
1.0
 70
     8
 71
     3
 72
     9
 73
     5
 74
     0
 42
0.0000000001
 43
0.0000000001
 40
0.0
 40
0.0
 40
0.0
 40
0.0
 40
0.3772635894352839
 40
1.0
 40
1.0
 40
1.0
 40
1.0
 10
-128.3349164614789
 20
41.61481344523447
 30
0.0
 10
-128.3349076275463
 20
41.61475581161369
 30
0.0
 10
-128.3348842117362
 20
41.61460304409944
 30
0.0
 10
-128.3349240023886
 20
41.61445258079679
 30
0.0
 10
-128.3349487814767
 20
41.61435888181979
 30
0.0
  0
ARC
  5
2FFF
330
A
100
AcDbEntity
  8
001
  6
Continuous
370
    15
100
AcDbCircle
 10
-128.3642815620664
 20
41.60867416410622
 30
0.0
 40
0.0300000000000065
100
AcDbArc
 50
326.8085136031
 51
348.1914863969
  0
SPLINE
  5
3000
330
A
100
AcDbEntity
  8
001
  6
Continuous
370
    15
100
AcDbSpline
210
0.0
220
0.0
230
1.0
 70
     8
 71
     3
 72
     9
 73
     5
 74
     0
 42
0.0000000001
 43
0.0000000001
 40
0.0
 40
0.0
 40
0.0
 40
0.0
 40
0.3773216397684828
 40
1.0
 40
1.0
 40
1.0
 40
1.0
 10
-128.339176192789
 20
41.59225099675585
 30
0.0
 10
-128.3392107015917
 20
41.59220399878953
 30
0.0
 10
-128.33930215885
 20
41.59207944201521
 30
0.0
 10
-128.3394366658684
 20
41.59200119493412
 30
0.0
 10
-128.339520420478
 20
41.59195247216999
 30
0.0
  0
ARC
  5
3001
330
A
100
AcDbEntity
  8
001
  6
Continuous
370
    15
100
AcDbCircle
 10
-128.3642815620664
 20
41.56367416410622
 30
0.0
 40
0.0166666666666602
100
AcDbArc
 50
70.0570082632
 51
109.9429917367999
  0
ARC
  5
3002
330
A
100
AcDbEntity
  8
001
  6
Continuous
370
    15
100
AcDbCircle
 10
-128.3324617569129
 20
41.57685435895273
 30
0.0
 40
0.0166666666666602
100
AcDbArc
 50
115.0570082632
 51
154.9429917367999
  0
ARC
  5
3003
330
A
100
AcDbEntity
  8
001
  6
Continuous
370
    15
100
AcDbCircle
 10
-128.4092815620664
 20
41.60867416410622
 30
0.0
 40
0.0166666666666602
100
AcDbArc
 50
340.0570082632
 51
19.94287286180001
  0
SPLINE
  5
3004
330
A
100
AcDbEntity
  8
001
  6
Continuous
370
    15
100
AcDbSpline
210
0.0
220
0.0
230
1.0
 70
     8
 71
     3
 72
     9
 73
     5
 74
     0
 42
0.0000000001
 43
0.0000000001
 40
0.0
 40
0.0
 40
0.0
 40
0.0
 40
0.3772922345024873
 40
1.0
 40
1.0
 40
1.0
 40
1.0
 10
-128.34755987013
 20
41.58391302251795
 30
0.0
 10
-128.3475873819633
 20
41.58386161440011
 30
0.0
 10
-128.3476603011246
 20
41.58372535896431
 30
0.0
 10
-128.3477823971617
 20
41.58362886326906
 30
0.0
 10
-128.3478584273122
 20
41.58356877465029
 30
0.0
  0
SPLINE
  5
3005
330
A
100
AcDbEntity
  8
001
  6
Continuous
370
    15
100
AcDbSpline
210
0.0
220
0.0
230
1.0
 70
     8
 71
     3
 72
     9
 73
     5
 74
     0
 42
0.0000000001
 43
0.0000000001
 40
0.0
 40
0.0
 40
0.0
 40
0.0
 40
0.37726390504305
 40
1.0
 40
1.0
 40
1.0
 40
1.0
 10
-128.393614342656
 20
41.61435888143174
 30
0.0
 10
-128.3936312428285
 20
41.61441468542892
 30
0.0
 10
-128.393676039514
 20
41.61456260309727
 30
0.0
 10
-128.3936579362251
 20
41.61471718308475
 30
0.0
 10
-128.3936466626537
 20
41.61481344562251
 30
0.0
  0
SPLINE
  5
3006
330
A
100
AcDbEntity
  8
001
  6
Continuous
370
    15
100
AcDbSpline
210
0.0
220
0.0
230
1.0
 70
     8
 71
     3
 72
     9
 73
     5
 74
     0
 42
0.0000000001
 43
0.0000000001
 40
0.0
 40
0.0
 40
0.0
 40
0.0
 40
0.3772896791339718
 40
1.0
 40
1.0
 40
1.0
 40
1.0
 10
-128.3699663116
 20
41.57934137109895
 30
0.0
 10
-128.3700221161122
 20
41.57932447425491
 30
0.0
 10
-128.3701700250405
 20
41.57927968945169
 30
0.0
 10
-128.3703245927035
 20
41.57929779130681
 30
0.0
 10
-128.3704208435826
 20
41.57930906351883
 30
0.0
  0
SPLINE
  5
3007
330
A
100
AcDbEntity
  8
001
  6
Continuous
370
    15
100
AcDbSpline
210
0.0
220
0.0
230
1.0
 70
     8
 71
     3
 72
     9
 73
     5
 74
     0
 42
0.0000000001
 43
0.0000000001
 40
0.0
 40
0.0
 40
0.0
 40
0.0
 40
0.3772617319557621
 40
1.0
 40
1.0
 40
1.0
 40
1.0
 10
-128.3890426726105
 20
41.59195245820015
 30
0.0
 10
-128.3890940817093
 20
41.5919799673531
 30
0.0
 10
-128.3892303507621
 20
41.59205288530535
 30
0.0
 10
-128.3893268547783
 20
41.59217499005304
 30
0.0
 10
-128.3893869515223
 20
41.59225102935214
 30
0.0
  0
ARC
  5
3008
330
A
100
AcDbEntity
  8
001
  6
Continuous
370
    15
100
AcDbCircle
 10
-128.3642815620664
 20
41.65367416410623
 30
0.0
 40
0.0166666666666602
100
AcDbArc
 50
250.0570082632
 51
289.9428728617999
  0
ARC
  5
3009
330
A
100
AcDbEntity
  8
001
  6
Continuous
370
    15
100
AcDbCircle
 10
-128.3961013672197
 20
41.64049396925973
 30
0.0
 40
0.0166666666666602
100
AcDbArc
 50
295.0570082631999
 51
334.9429917368
  0
ARC
  5
300A
330
A
100
AcDbEntity
  8
001
  6
Continuous
370
    15
100
AcDbCircle
 10
-128.3192815620664
 20
41.60867416410622
 30
0.0
 40
0.0166666666666602
100
AcDbArc
 50
160.0571264714999
 51
199.9429917368
  0
ARC
  5
300B
330
A
100
AcDbEntity
  8
001
  6
Continuous
370
    15
100
AcDbCircle
 10
-128.3324617569129
 20
41.64049396925973
 30
0.0
 40
0.0166666666666602
100
AcDbArc
 50
205.0570082631999
 51
244.9428728617999
  0
SPLINE
  5
300C
330
A
100
AcDbEntity
  8
001
  6
Continuous
370
    15
100
AcDbSpline
210
0.0
220
0.0
230
1.0
 70
     8
 71
     3
 72
     9
 73
     5
 74
     0
 42
0.0000000001
 43
0.0000000001
 40
0.0
 40
0.0
 40
0.0
 40
0.0
 40
0.3772617319557621
 40
1.0
 40
1.0
 40
1.0
 40
1.0
 10
-128.3395204515221
 20
41.62539587001234
 30
0.0
 10
-128.3394690424232
 20
41.62536836085938
 30
0.0
 10
-128.3393327733705
 20
41.62529544290713
 30
0.0
 10
-128.3392362693543
 20
41.62517333815944
 30
0.0
 10
-128.3391761726103
 20
41.62509729886035
 30
0.0
  0
SPLINE
  5
300D
330
A
100
AcDbEntity
  8
001
  6
Continuous
370
    15
100
AcDbSpline
210
0.0
220
0.0
230
1.0
 70
     8
 71
     3
 72
     9
 73
     5
 74
     0
 42
0.0000000001
 43
0.0000000001
 40
0.0
 40
0.0
 40
0.0
 40
0.0
 40
0.3772940646822084
 40
1.0
 40
1.0
 40
1.0
 40
1.0
 10
-128.3585968447408
 20
41.6380069446959
 30
0.0
 10
-128.3585410407789
 20
41.63802384479827
 30
0.0
 10
-128.3583931350279
 20
41.63806863771696
 30
0.0
 10
-128.3582385672805
 20
41.63805054219549
 30
0.0
 10
-128.3581423170268
 20
41.63803927400688
 30
0.0
  0
SPLINE
  5
300E
330
A
100
AcDbEntity
  8
001
  6
Continuous
370
    15
100
AcDbSpline
210
0.0
220
0.0
230
1.0
 70
     8
 71
     3
 72
     9
 73
     5
 74
     0
 42
0.0000000001
 43
0.0000000001
 40
0.0
 40
0.0
 40
0.0
 40
0.0
 40
0.3773198431846463
 40
1.0
 40
1.0
 40
1.0
 40
1.0
 10
-128.334948769059
 20
41.60298941457251
 30
0.0
 10
-128.3349318722852
 20
41.60293361009561
 30
0.0
 10
-128.3348870912482
 20
41.60278571308485
 30
0.0
 10
-128.3349051853361
 20
41.60263115766182
 30
0.0
 10
-128.3349164521657
 20
41.60253491906677
 30
0.0
  0
ARC
  5
300F
330
A
100
AcDbEntity
  8
001
  6
Continuous
370
    15
100
AcDbCircle
 10
-128.3961013672197
 20
41.57685435895273
 30
0.0
 40
0.0166666666666602
100
AcDbArc
 50
25.05712647150001
 51
64.9428728618
  0
SPLINE
  5
3010
330
A
100
AcDbEntity
  8
001
  6
Continuous
370
    15
100
AcDbSpline
210
0.0
220
0.0
230
1.0
 70
     8
 71
     3
 72
     9
 73
     5
 74
     0
 42
0.0000000001
 43
0.0000000001
 40
0.0
 40
0.0
 40
0.0
 40
0.0
 40
0.3772926876089477
 40
1.0
 40
1.0
 40
1.0
 40
1.0
 10
-128.3893869515223
 20
41.62509729886035
 30
0.0
 10
-128.3893524449268
 20
41.62514429888331
 30
0.0
 10
-128.3892609865005
 20
41.62526887066676
 30
0.0
 10
-128.3891264688064
 20
41.62534712592251
 30
0.0
 10
-128.3890427036546
 20
41.6253958560425
 30
0.0
  0
SPLINE
  5
3011
330
A
100
AcDbEntity
  8
001
  6
Continuous
370
    15
100
AcDbSpline
210
0.0
220
0.0
230
1.0
 70
     8
 71
     3
 72
     9
 73
     5
 74
     0
 42
0.0000000001
 43
0.0000000001
 40
0.0
 40
0.0
 40
0.0
 40
0.0
 40
0.3772922345024873
 40
1.0
 40
1.0
 40
1.0
 40
1.0
 10
-128.3810032540025
 20
41.63343530569453
 30
0.0
 10
-128.3809757421693
 20
41.63348671381237
 30
0.0
 10
-128.380902823008
 20
41.63362296924819
 30
0.0
 10
-128.3807807269709
 20
41.63371946494343
 30
0.0
 10
-128.3807046968204
 20
41.6337795535622
 30
0.0
  0
ARC
  5
3012
330
A
100
AcDbEntity
  8
001
  6
PHANTOM
370
     0
100
AcDbCircle
 10
-128.3642815620664
 20
41.60867416410622
 30
0.0
 40
0.0394039884366497
100
AcDbArc
 50
270.0
 51
74.00060810779999
  0
ARC
  5
3013
330
A
100
AcDbEntity
  8
001
  6
PHANTOM
370
     0
100
AcDbCircle
 10
-128.3642815620664
 20
41.60867416410622
 30
0.0
 40
0.0394039884366497
100
AcDbArc
 50
105.9993918921999
 51
270.0
  0
ARC
  5
3014
330
A
100
AcDbEntity
  8
001
  6
PHANTOM
370
     0
100
AcDbCircle
 10
-128.4058916235422
 20
41.55536928055098
 30
0.0
 40
0.0004533781199863
100
AcDbArc
 50
308.4568464259999
 51
36.44583465989999
  0
ARC
  5
3017
330
A
100
AcDbEntity
  8
001
  6
PHANTOM
370
     0
100
AcDbCircle
 10
-128.4216664356119
 20
41.56298409903772
 30
0.0
 40
0.0004533890159202
100
AcDbArc
 50
128.4579426595
 51
216.4448126259999
  0
ARC
  5
301C
330
A
100
AcDbEntity
  8
001
  6
PHANTOM
370
     0
100
AcDbCircle
 10
-128.4175864456217
 20
41.56706410263047
 30
0.0
 40
0.0004533781199862
100
AcDbArc
 50
53.55416533999999
 51
141.5431535739999
  0
ARC
  5
301F
330
A
100
AcDbEntity
  8
001
  6
PHANTOM
370
     0
100
AcDbCircle
 10
-128.4099716271347
 20
41.55128929056072
 30
0.0
 40
0.0004533890159202
100
AcDbArc
 50
233.555187374
 51
321.5420573404999
  0
LINE
  5
3020
330
A
100
AcDbEntity
  8
001
  6
PHANTOM
370
     0
100
AcDbLine
 10
-128.4074150748264
 20
41.55681966604272
 30
0.0
 11
-128.4161360601299
 21
41.56554065134598
 31
0.0
  0
LINE
  5
3021
330
A
100
AcDbEntity
  8
001
  6
PHANTOM
370
     0
100
AcDbLine
 10
-128.4201429978969
 20
41.56153371357897
 30
0.0
 11
-128.4114220125937
 21
41.55281272827572
 31
0.0
  0
LINE
  5
3022
330
A
100
AcDbEntity
  8
001
  6
PHANTOM
370
     0
100
AcDbLine
 10
-128.4219484163784
 20
41.56333913206047
 30
0.0
 11
-128.4179414755069
 21
41.56734606982747
 31
0.0
  0
LINE
  5
3023
330
A
100
AcDbEntity
  8
001
  6
PHANTOM
370
     0
100
AcDbLine
 10
-128.4201429978969
 20
41.56153371357897
 30
0.0
 11
-128.4161360601299
 21
41.56554065134598
 31
0.0
  0
LINE
  5
3024
330
A
100
AcDbEntity
  8
001
  6
PHANTOM
370
     0
100
AcDbLine
 10
-128.4074150748264
 20
41.55681966604272
 30
0.0
 11
-128.4114220125937
 21
41.55281272827572
 31
0.0
  0
LINE
  5
3025
330
A
100
AcDbEntity
  8
001
  6
PHANTOM
370
     0
100
AcDbLine
 10
-128.4056096563451
 20
41.55501425066573
 30
0.0
 11
-128.4096165941122
 21
41.55100730979422
 31
0.0
  0
LINE
  5
3026
330
A
100
AcDbEntity
  8
001
  6
PHANTOM
370
     0
100
AcDbLine
 10
-128.4240114386839
 20
41.56540215436598
 30
0.0
 11
-128.4219484163784
 21
41.56333913206047
 31
0.0
  0
LINE
  5
3027
330
A
100
AcDbEntity
  8
001
  6
PHANTOM
370
     0
100
AcDbLine
 10
-128.4179414755069
 20
41.56734606982747
 30
0.0
 11
-128.4200045040212
 21
41.56940909213298
 31
0.0
  0
LINE
  5
3028
330
A
100
AcDbEntity
  8
001
  6
PHANTOM
370
     0
100
AcDbLine
 10
-128.4096165941122
 20
41.55100730979422
 30
0.0
 11
-128.4075535718067
 21
41.54894428748873
 31
0.0
  0
LINE
  5
3029
330
A
100
AcDbEntity
  8
001
  6
PHANTOM
370
     0
100
AcDbLine
 10
-128.4035466340394
 20
41.55295122215123
 30
0.0
 11
-128.4056096563451
 21
41.55501425066573
 31
0.0
  0
SPLINE
  5
302A
330
A
100
AcDbEntity
  8
001
  6
PHANTOM
370
     0
100
AcDbSpline
210
0.0
220
0.0
230
1.0
 70
     8
 71
     3
 72
    35
 73
    31
 74
     0
 42
0.0000000001
 43
0.0000000001
 40
0.0
 40
0.0
 40
0.0
 40
0.0
 40
0.0160640021966456
 40
0.0494186302435404
 40
0.0841565302286949
 40
0.1189012285195592
 40
0.1543783070277207
 40
0.18986229753979
 40
0.2253393771643371
 40
0.2608233664856153
 40
0.2955612856992858
 40
0.3303059653925775
 40
0.3747421226059181
 40
0.4179674673446231
 40
0.459895768647166
 40
0.4913546534824053
 40
0.5228203752065643
 40
0.556168246073861
 40
0.5895228741207558
 40
0.6242607741059102
 40
0.6590054723967745
 40
0.6944825509049359
 40
0.7299665414170052
 40
0.7654436210415524
 40
0.8009276103628305
 40
0.835665529576501
 40
0.8704102092697928
 40
0.9148463664831332
 40
0.958070179429619
 40
1.0
 40
1.0
 40
1.0
 40
1.0
 10
-128.3539987301789
 20
41.65195734350859
 30
0.0
 10
-128.3533214588254
 20
41.6518075624851
 30
0.0
 10
-128.3512379293175
 20
41.65134678235529
 30
0.0
 10
-128.3478079789409
 20
41.65011769587731
 30
0.0
 10
-128.3437570657296
 20
41.6482943618935
 30
0.0
 10
-128.3398406550048
 20
41.64599981789504
 30
0.0
 10
-128.3361479991041
 20
41.64330787862518
 30
0.0
 10
-128.3327318390492
 20
41.64022425089158
 30
0.0
 10
-128.3296483247245
 20
41.63680790487895
 30
0.0
 10
-128.3269551510766
 20
41.6331158453077
 30
0.0
 10
-128.3246654438125
 20
41.62919788343467
 30
0.0
 10
-128.3226251737451
 20
41.62471585501307
 30
0.0
 10
-128.320996090607
 20
41.61967433313962
 30
0.0
 10
-128.3199657368636
 20
41.61416234642645
 30
0.0
 10
-128.3196591046288
 20
41.60912588589272
 30
0.0
 10
-128.3198652958989
 20
41.60459928616203
 30
0.0
 10
-128.3204356200642
 20
41.60047776766179
 30
0.0
 10
-128.3214077572284
 20
41.59634710064914
 30
0.0
 10
-128.3228236647801
 20
41.5921971790446
 30
0.0
 10
-128.3246652775168
 20
41.58815059462056
 30
0.0
 10
-128.3269548350151
 20
41.58423300229269
 30
0.0
 10
-128.3296481377152
 20
41.58054067212328
 30
0.0
 10
-128.3327313975707
 20
41.57712441423967
 30
0.0
 10
-128.3361478420104
 20
41.57404096318882
 30
0.0
 10
-128.3398398758992
 20
41.57134763533177
 30
0.0
 10
-128.3437578423983
 20
41.56905847082067
 30
0.0
 10
-128.3482398780697
 20
41.56701600249099
 30
0.0
 10
-128.3532812941155
 20
41.56539731338036
 30
0.0
 10
-128.3587934405529
 20
41.56432786074316
 30
0.0
 10
-128.3624708153253
 20
41.56419814556072
 30
0.0
 10
-128.3642815620663
 20
41.56413427354375
 30
0.0
  0
SPLINE
  5
302B
330
A
100
AcDbEntity
  8
001
  6
PHANTOM
370
     0
100
AcDbSpline
210
0.0
220
0.0
230
1.0
 70
     8
 71
     3
 72
    36
 73
    32
 74
     0
 42
0.0000000001
 43
0.0000000001
 40
0.0
 40
0.0
 40
0.0
 40
0.0
 40
0.0314594387534841
 40
0.0629154431408211
 40
0.0962584804043114
 40
0.1296082738679811
 40
0.1643411387716977
 40
0.1990808009957445
 40
0.2345527372823111
 40
0.2700315845709258
 40
0.3055035219737163
 40
0.3409823680717124
 40
0.375715252201158
 40
0.4104548958303278
 40
0.454884612249307
 40
0.4981036916947435
 40
0.5400259157038489
 40
0.5714802407341733
 40
0.6029414016624452
 40
0.6362844389259355
 40
0.6696342323896052
 40
0.7043670972933218
 40
0.7391067595173685
 40
0.7745786958039352
 40
0.8100575430925497
 40
0.8455294804953402
 40
0.8810083265933362
 40
0.9157412107227818
 40
0.9504808543519516
 40
0.9949105707709307
 40
1.0
 40
1.0
 40
1.0
 40
1.0
 10
-128.3642815620663
 20
41.56413427354375
 30
0.0
 10
-128.3656399978371
 20
41.56416999590425
 30
0.0
 10
-128.3683567210808
 20
41.56424143672551
 30
0.0
 10
-128.3724781593306
 20
41.56483298472014
 30
0.0
 10
-128.3766086299714
 20
41.56579906735085
 30
0.0
 10
-128.3807585458436
 20
41.56721662901658
 30
0.0
 10
-128.3848051320483
 20
41.56905778089322
 30
0.0
 10
-128.3887227231946
 20
41.57134746411276
 30
0.0
 10
-128.3924150563368
 20
41.5740407324484
 30
0.0
 10
-128.3958313034875
 20
41.57712400153556
 30
0.0
 10
-128.3989147944728
 20
41.5805404436564
 30
0.0
 10
-128.4016079743469
 20
41.58423247758934
 30
0.0
 10
-128.40389767998
 20
41.58815044617816
 30
0.0
 10
-128.4059379505074
 20
41.59263247270573
 30
0.0
 10
-128.4075670334911
 20
41.59767399521403
 30
0.0
 10
-128.4085973872782
 20
41.60318598175105
 30
0.0
 10
-128.4089040195011
 20
41.60822244232159
 30
0.0
 10
-128.4086978282368
 20
41.61274904206295
 30
0.0
 10
-128.4081275040577
 20
41.61687056049651
 30
0.0
 10
-128.4071553669465
 20
41.62100122778098
 30
0.0
 10
-128.4057394591922
 20
41.62515114834233
 30
0.0
 10
-128.4038978472418
 20
41.62919773681546
 30
0.0
 10
-128.4016082867629
 20
41.63311531379602
 30
0.0
 10
-128.398914995411
 20
41.6368077023977
 30
0.0
 10
-128.3958316930162
 20
41.64022374124523
 30
0.0
 10
-128.3924154072924
 20
41.64330800952838
 30
0.0
 10
-128.3887227851417
 20
41.64599830840892
 30
0.0
 10
-128.3848069697414
 20
41.64829854898539
 30
0.0
 10
-128.3803161972329
 20
41.65029603110904
 30
0.0
 10
-128.3768737619839
 20
41.651556620397
 30
0.0
 10
-128.3747699119182
 20
41.65193707306701
 30
0.0
 10
-128.3745536845202
 20
41.65197617485105
 30
0.0
  0
SPLINE
  5
302C
330
A
100
AcDbEntity
  8
001
  6
PHANTOM
370
     0
100
AcDbSpline
210
0.0
220
0.0
230
1.0
 70
     8
 71
     3
 72
     9
 73
     5
 74
     0
 42
0.0000000001
 43
0.0000000001
 40
0.0
 40
0.0
 40
0.0
 40
0.0
 40
0.5000002163751934
 40
1.0
 40
1.0
 40
1.0
 40
1.0
 10
-128.4093006925992
 20
41.54344877028445
 30
0.0
 10
-128.4096979411946
 20
41.54348972720216
 30
0.0
 10
-128.4104924380416
 20
41.5435716410021
 30
0.0
 10
-128.411112154499
 20
41.5440755126056
 30
0.0
 10
-128.4114220125936
 20
41.54432744829833
 30
0.0
  0
SPLINE
  5
302D
330
A
100
AcDbEntity
  8
001
  6
PHANTOM
370
     0
100
AcDbSpline
210
0.0
220
0.0
230
1.0
 70
     8
 71
     3
 72
    15
 73
    11
 74
     0
 42
0.0000000001
 43
0.0000000001
 40
0.0
 40
0.0
 40
0.0
 40
0.0
 40
0.1222499214026823
 40
0.2499999242390997
 40
0.3777506681209032
 40
0.5000000408600278
 40
0.6222500600552948
 40
0.7500000228545242
 40
0.8777504685256452
 40
1.0
 40
1.0
 40
1.0
 40
1.0
 10
-128.4071793726049
 20
41.54857008828699
 30
0.0
 10
-128.4069928427198
 20
41.54834937110167
 30
0.0
 10
-128.4066113908824
 20
41.5478980065611
 30
0.0
 10
-128.4063157990811
 20
41.54704069708417
 30
0.0
 10
-128.4062717713165
 20
41.54614400557463
 30
0.0
 10
-128.4064906493717
 20
41.54528480827475
 30
0.0
 10
-128.4069434194941
 20
41.54452249199559
 30
0.0
 10
-128.4076086146316
 20
41.54391957390653
 30
0.0
 10
-128.4084238353472
 20
41.54352237654356
 30
0.0
 10
-128.409012726099
 20
41.54347294313217
 30
0.0
 10
-128.4093006925992
 20
41.54344877028445
 30
0.0
  0
LINE
  5
302E
330
A
100
AcDbEntity
  8
001
  6
PHANTOM
370
     0
100
AcDbLine
 10
-128.4075535718067
 20
41.54894428748873
 30
0.0
 11
-128.4071793726049
 21
41.54857008828698
 31
0.0
  0
LINE
  5
302F
330
A
100
AcDbEntity
  8
001
  6
PHANTOM
370
     0
100
AcDbLine
 10
-128.4031724348379
 20
41.55257702915847
 30
0.0
 11
-128.4035466340394
 21
41.55295122215123
 31
0.0
  0
SPLINE
  5
3030
330
A
100
AcDbEntity
  8
001
  6
PHANTOM
370
     0
100
AcDbSpline
210
0.0
220
0.0
230
1.0
 70
     8
 71
     3
 72
     9
 73
     5
 74
     0
 42
0.0000000001
 43
0.0000000001
 40
0.0
 40
0.0
 40
0.0
 40
0.0
 40
0.4999994796560371
 40
1.0
 40
1.0
 40
1.0
 40
1.0
 10
-128.4010511148435
 20
41.55169834493577
 30
0.0
 10
-128.4014483636565
 20
41.55173930154758
 30
0.0
 10
-128.4022428621092
 20
41.55182121485646
 30
0.0
 10
-128.4028625770466
 20
41.55232509088301
 30
0.0
 10
-128.4031724348378
 20
41.55257702915847
 30
0.0
  0
SPLINE
  5
3031
330
A
100
AcDbEntity
  8
001
  6
PHANTOM
370
     0
100
AcDbSpline
210
0.0
220
0.0
230
1.0
 70
     8
 71
     3
 72
    15
 73
    11
 74
     0
 42
0.0000000001
 43
0.0000000001
 40
0.0
 40
0.0
 40
0.0
 40
0.0
 40
0.1222495230349517
 40
0.2499994786480933
 40
0.3777501954974252
 40
0.4999996315423982
 40
0.6222496055474795
 40
0.7500001152679691
 40
0.8777505137156504
 40
1.0
 40
1.0
 40
1.0
 40
1.0
 10
-128.3989297948492
 20
41.55681966604272
 30
0.0
 10
-128.3987432647867
 20
41.55659894995017
 30
0.0
 10
-128.3983618120233
 20
41.55614758697799
 30
0.0
 10
-128.3980662228586
 20
41.55529027779888
 30
0.0
 10
-128.3980221883142
 20
41.55439358611189
 30
0.0
 10
-128.3982410725493
 20
41.55353438928119
 30
0.0
 10
-128.3986938432467
 20
41.55277207283442
 30
0.0
 10
-128.3993590346449
 20
41.55216914805754
 30
0.0
 10
-128.4001742578168
 20
41.55177195146205
 30
0.0
 10
-128.4007631484172
 20
41.55172251787123
 30
0.0
 10
-128.4010511148435
 20
41.55169834493577
 30
0.0
  0
LINE
  5
3032
330
A
100
AcDbEntity
  8
001
  6
PHANTOM
370
     0
100
AcDbLine
 10
-128.4161360601299
 20
41.57402593132347
 30
0.0
 11
-128.3989297948492
 21
41.55681966604272
 31
0.0
  0
SPLINE
  5
3033
330
A
100
AcDbEntity
  8
001
  6
PHANTOM
370
     0
100
AcDbSpline
210
0.0
220
0.0
230
1.0
 70
     8
 71
     3
 72
     9
 73
     5
 74
     0
 42
0.0000000001
 43
0.0000000001
 40
0.0
 40
0.0
 40
0.0
 40
0.0
 40
0.49999845269911
 40
1.0
 40
1.0
 40
1.0
 40
1.0
 10
-128.4161360601298
 20
41.57402593132336
 30
0.0
 10
-128.4164459172203
 20
41.57427786676509
 30
0.0
 10
-128.4170656333191
 20
41.57478173920785
 30
0.0
 10
-128.4178601303696
 20
41.57486365461255
 30
0.0
 10
-128.4182573801242
 20
41.57490461244165
 30
0.0
  0
SPLINE
  5
3034
330
A
100
AcDbEntity
  8
001
  6
PHANTOM
370
     0
100
AcDbSpline
210
0.0
220
0.0
230
1.0
 70
     8
 71
     3
 72
    15
 73
    11
 74
     0
 42
0.0000000001
 43
0.0000000001
 40
0.0
 40
0.0
 40
0.0
 40
0.0
 40
0.1222497394909247
 40
0.2500002100806511
 40
0.3777504170277081
 40
0.5000001245239419
 40
0.6222498978244669
 40
0.7500003867035126
 40
0.8777501247693241
 40
1.0
 40
1.0
 40
1.0
 40
1.0
 10
-128.4203786970141
 20
41.5697832913347
 30
0.0
 10
-128.4205652279787
 20
41.57000400734993
 30
0.0
 10
-128.4209466830275
 20
41.57045537068539
 30
0.0
 10
-128.4212422768209
 20
41.57131268027854
 30
0.0
 10
-128.4212863036272
 20
41.57220937268031
 30
0.0
 10
-128.4210674285709
 20
41.57306857088712
 30
0.0
 10
-128.4206146508318
 20
41.57383088550056
 30
0.0
 10
-128.4199494569935
 20
41.57443380259247
 30
0.0
 10
-128.4191342388002
 20
41.57483100847397
 30
0.0
 10
-128.4185453479174
 20
41.57488044027717
 30
0.0
 10
-128.4182573801242
 20
41.57490461244165
 30
0.0
  0
LINE
  5
3035
330
A
100
AcDbEntity
  8
001
  6
PHANTOM
370
     0
100
AcDbLine
 10
-128.4200045040212
 20
41.56940909213298
 30
0.0
 11
-128.4203786970141
 21
41.56978329133472
 31
0.0
  0
LINE
  5
3036
330
A
100
AcDbEntity
  8
001
  6
PHANTOM
370
     0
100
AcDbLine
 10
-128.4243856378857
 20
41.56577635356772
 30
0.0
 11
-128.4240114386839
 21
41.56540215436598
 31
0.0
  0
SPLINE
  5
3037
330
A
100
AcDbEntity
  8
001
  6
PHANTOM
370
     0
100
AcDbSpline
210
0.0
220
0.0
230
1.0
 70
     8
 71
     3
 72
     9
 73
     5
 74
     0
 42
0.0000000001
 43
0.0000000001
 40
0.0
 40
0.0
 40
0.0
 40
0.0
 40
0.5000008666625968
 40
1.0
 40
1.0
 40
1.0
 40
1.0
 10
-128.4265069609843
 20
41.56665503158151
 30
0.0
 10
-128.4261097112874
 20
41.56661407485051
 30
0.0
 10
-128.4253152132708
 20
41.56653216153048
 30
0.0
 10
-128.4246954959892
 20
41.56602828926412
 30
0.0
 10
-128.4243856378855
 20
41.56577635356764
 30
0.0
  0
SPLINE
  5
3038
330
A
100
AcDbEntity
  8
001
  6
PHANTOM
370
     0
100
AcDbSpline
210
0.0
220
0.0
230
1.0
 70
     8
 71
     3
 72
    15
 73
    11
 74
     0
 42
0.0000000001
 43
0.0000000001
 40
0.0
 40
0.0
 40
0.0
 40
0.0
 40
0.1222495184268589
 40
0.2500002419034919
 40
0.3777505869072045
 40
0.4999999992991488
 40
0.6222494539723673
 40
0.7500003779804977
 40
0.8777508650887671
 40
1.0
 40
1.0
 40
1.0
 40
1.0
 10
-128.4286282778742
 20
41.56153371357897
 30
0.0
 10
-128.428814809603
 20
41.56175442826268
 30
0.0
 10
-128.4291962669528
 20
41.56220578974882
 30
0.0
 10
-128.4294918487455
 20
41.5630631031277
 30
0.0
 10
-128.4295358796342
 20
41.56395979394302
 30
0.0
 10
-128.4293170012445
 20
41.56481898921709
 30
0.0
 10
-128.4288642316961
 20
41.56558130600696
 30
0.0
 10
-128.4281990381818
 20
41.56618422744715
 30
0.0
 10
-128.4273838159957
 20
41.56658142473554
 30
0.0
 10
-128.4267949263961
 20
41.56663085857066
 30
0.0
 10
-128.4265069609843
 20
41.56665503158151
 30
0.0
  0
LINE
  5
3039
330
A
100
AcDbEntity
  8
001
  6
PHANTOM
370
     0
100
AcDbLine
 10
-128.4114220125937
 20
41.54432744829822
 30
0.0
 11
-128.4286282778742
 21
41.56153371357897
 31
0.0
  0
SPLINE
  5
3042
330
A
100
AcDbEntity
  8
001
  6
PHANTOM
370
     0
100
AcDbSpline
210
0.0
220
0.0
230
1.0
 70
     8
 71
     3
 72
    23
 73
    19
 74
     0
 42
0.0000000001
 43
0.0000000001
 40
0.0
 40
0.0
 40
0.0
 40
0.0
 40
0.0536864034878605
 40
0.1319441100287644
 40
0.2053963020784763
 40
0.274024652562895
 40
0.3378127188477187
 40
0.3967474151771168
 40
0.4508176613548068
 40
0.5000152825485982
 40
0.5493139662933376
 40
0.6034564167512027
 40
0.6624344929355802
 40
0.7262373059158444
 40
0.7948513263108918
 40
0.8682607732409262
 40
0.9464474542902399
 40
1.0
 40
1.0
 40
1.0
 40
1.0
 10
-128.3539577504334
 20
41.65140935020128
 30
0.0
 10
-128.3540009016753
 20
41.65138489805886
 30
0.0
 10
-128.3541069537077
 20
41.65132480246739
 30
0.0
 10
-128.3549215280662
 20
41.65124049833395
 30
0.0
 10
-128.3561715273723
 20
41.65115787867111
 30
0.0
 10
-128.3577061865808
 20
41.65109041766029
 30
0.0
 10
-128.3593709999707
 20
41.65103775598526
 30
0.0
 10
-128.3610653711489
 20
41.6509999621423
 30
0.0
 10
-128.362705017328
 20
41.65097700277751
 30
0.0
 10
-128.3642825711967
 20
41.65096857399555
 30
0.0
 10
-128.365860882763
 20
41.65097699759897
 30
0.0
 10
-128.3675025854555
 20
41.6509999237311
 30
0.0
 10
-128.3691978201581
 20
41.65103766425954
 30
0.0
 10
-128.3708623002517
 20
41.65109025652347
 30
0.0
 10
-128.3723956718786
 20
41.65115762499193
 30
0.0
 10
-128.3736438319581
 20
41.65124013583762
 30
0.0
 10
-128.3744566291457
 20
41.65132430133972
 30
0.0
 10
-128.3745624275274
 20
41.65138429505692
 30
0.0
 10
-128.3746054350113
 20
41.65140868275344
 30
0.0
  0
SPLINE
  5
3043
330
A
100
AcDbEntity
  8
001
  6
PHANTOM
370
     0
100
AcDbSpline
210
0.0
220
0.0
230
1.0
 70
     8
 71
     3
 72
    23
 73
    19
 74
     0
 42
0.0000000001
 43
0.0000000001
 40
0.0
 40
0.0
 40
0.0
 40
0.0
 40
0.0620100180968252
 40
0.1260912468218465
 40
0.1890323202544602
 40
0.2511314044726891
 40
0.3128929850978308
 40
0.3746310314539839
 40
0.4372965997665464
 40
0.4999378855474087
 40
0.5624372841708907
 40
0.6248948296746835
 40
0.6867014196249942
 40
0.7484531649339632
 40
0.8107439249180023
 40
0.8738458803574202
 40
0.9378760929747812
 40
1.0
 40
1.0
 40
1.0
 40
1.0
 10
-128.355697584403
 20
41.65306230807284
 30
0.0
 10
-128.3556056069245
 20
41.6530276432171
 30
0.0
 10
-128.355418579807
 20
41.65295715565693
 30
0.0
 10
-128.3557115353716
 20
41.65285071293792
 30
0.0
 10
-128.3563750281321
 20
41.65274989300629
 30
0.0
 10
-128.3574469189129
 20
41.65266108191583
 30
0.0
 10
-128.3588365712341
 20
41.65258734569126
 30
0.0
 10
-128.3605034676955
 20
41.65253222873142
 30
0.0
 10
-128.3623588086512
 20
41.65249733925008
 30
0.0
 10
-128.3643209308725
 20
41.65248637488669
 30
0.0
 10
-128.3662788784721
 20
41.65249828122158
 30
0.0
 10
-128.3681258660458
 20
41.65253394759546
 30
0.0
 10
-128.3697832195865
 20
41.65258973864466
 30
0.0
 10
-128.3711634347598
 20
41.6526641963764
 30
0.0
 10
-128.3722229776391
 20
41.65275367420981
 30
0.0
 10
-128.3728705115659
 20
41.65285497584258
 30
0.0
 10
-128.3731462697555
 20
41.65296169002886
 30
0.0
 10
-128.3729441465859
 20
41.65303210154857
 30
0.0
 10
-128.3728446121352
 20
41.65306677531678
 30
0.0
  0
SPLINE
  5
3044
330
A
100
AcDbEntity
  8
001
  6
PHANTOM
370
     0
100
AcDbSpline
210
0.0
220
0.0
230
1.0
 70
     8
 71
     3
 72
    10
 73
     6
 74
     0
 42
0.0000000001
 43
0.0000000001
 40
0.0
 40
0.0
 40
0.0
 40
0.0
 40
0.3332042352834236
 40
0.6666494571832322
 40
1.0
 40
1.0
 40
1.0
 40
1.0
 10
-128.3728446121352
 20
41.65306677531678
 30
0.0
 10
-128.3715450883757
 20
41.65334159662918
 30
0.0
 10
-128.3689451009892
 20
41.65389143801574
 30
0.0
 10
-128.366192626776
 20
41.65473052932423
 30
0.0
 10
-128.3651369447889
 20
41.65529525484757
 30
0.0
 10
-128.3646091787441
 20
41.65557757751623
 30
0.0
  0
LINE
  5
3045
330
A
100
AcDbEntity
  8
001
  6
PHANTOM
370
     0
100
AcDbLine
 10
-128.3645777596069
 20
41.65557920112198
 30
0.0
 11
-128.3639897985427
 21
41.65557921043522
 31
0.0
  0
SPLINE
  5
3046
330
A
100
AcDbEntity
  8
001
  6
PHANTOM
370
     0
100
AcDbSpline
210
0.0
220
0.0
230
1.0
 70
     8
 71
     3
 72
    10
 73
     6
 74
     0
 42
0.0000000001
 43
0.0000000001
 40
0.0
 40
0.0
 40
0.0
 40
0.0
 40
0.33325076144257
 40
0.6667743462992794
 40
1.0
 40
1.0
 40
1.0
 40
1.0
 10
-128.3639535073274
 20
41.65557728259742
 30
0.0
 10
-128.3634240053838
 20
41.65529457453501
 30
0.0
 10
-128.3623645680077
 20
41.65472892696469
 30
0.0
 10
-128.3596058144601
 20
41.65388843809639
 30
0.0
 10
-128.3569999396178
 20
41.653337602702
 30
0.0
 10
-128.355697584403
 20
41.65306230807284
 30
0.0
  0
SPLINE
  5
3047
330
A
100
AcDbEntity
  8
001
  6
PHANTOM
370
     0
100
AcDbSpline
210
0.0
220
0.0
230
1.0
 70
     8
 71
     3
 72
    11
 73
     7
 74
     0
 42
0.0000000001
 43
0.0000000001
 40
0.0
 40
0.0
 40
0.0
 40
0.0
 40
0.2483346741278186
 40
0.5000000000000315
 40
0.7516653258721816
 40
1.0
 40
1.0
 40
1.0
 40
1.0
 10
-128.3703427929301
 20
41.58161855413496
 30
0.0
 10
-128.3693596167422
 20
41.58190055358743
 30
0.0
 10
-128.3673800780584
 20
41.58246833465438
 30
0.0
 10
-128.3642815620663
 20
41.58268820195182
 30
0.0
 10
-128.3611830460742
 20
41.58246833465438
 30
0.0
 10
-128.3592035073904
 20
41.58190055358743
 30
0.0
 10
-128.3582203312026
 20
41.58161855413496
 30
0.0
  0
SPLINE
  5
3048
330
A
100
AcDbEntity
  8
001
  6
PHANTOM
370
     0
100
AcDbSpline
210
0.0
220
0.0
230
1.0
 70
     8
 71
     3
 72
     9
 73
     5
 74
     0
 42
0.0000000001
 43
0.0000000001
 40
0.0
 40
0.0
 40
0.0
 40
0.0
 40
0.5000000405844015
 40
1.0
 40
1.0
 40
1.0
 40
1.0
 10
-128.379126747669
 20
41.58525685735274
 30
0.0
 10
-128.3777413079698
 20
41.58446082323693
 30
0.0
 10
-128.3749704287962
 20
41.58286875513453
 30
0.0
 10
-128.3718853381353
 20
41.58203528777892
 30
0.0
 10
-128.3703427929301
 20
41.58161855413496
 30
0.0
  0
SPLINE
  5
3049
330
A
100
AcDbEntity
  8
001
  6
PHANTOM
370
     0
100
AcDbSpline
210
0.0
220
0.0
230
1.0
 70
     8
 71
     3
 72
    11
 73
     7
 74
     0
 42
0.0000000001
 43
0.0000000001
 40
0.0
 40
0.0
 40
0.0
 40
0.0
 40
0.2483345862908043
 40
0.5000000132272687
 40
0.7516653708061467
 40
1.0
 40
1.0
 40
1.0
 40
1.0
 10
-128.3876987042861
 20
41.59382889623671
 30
0.0
 10
-128.3868040773719
 20
41.59333308155551
 30
0.0
 10
-128.385002824169
 20
41.59233480197284
 30
0.0
 10
-128.3826563458456
 20
41.59029924984088
 30
0.0
 10
-128.3806208161789
 20
41.58795275182003
 30
0.0
 10
-128.3796225538786
 20
41.58615148916396
 30
0.0
 10
-128.379126747669
 20
41.58525685735274
 30
0.0
  0
SPLINE
  5
304A
330
A
100
AcDbEntity
  8
001
  6
PHANTOM
370
     0
100
AcDbSpline
210
0.0
220
0.0
230
1.0
 70
     8
 71
     3
 72
     9
 73
     5
 74
     0
 42
0.0000000001
 43
0.0000000001
 40
0.0
 40
0.0
 40
0.0
 40
0.0
 40
0.4999999723669545
 40
1.0
 40
1.0
 40
1.0
 40
1.0
 10
-128.3913371720376
 20
41.60261293324249
 30
0.0
 10
-128.3909204265045
 20
41.60107036503048
 30
0.0
 10
-128.3900869353923
 20
41.59798522843596
 30
0.0
 10
-128.3884947813509
 20
41.59521434035418
 30
0.0
 10
-128.3876987042861
 20
41.59382889623671
 30
0.0
  0
SPLINE
  5
304B
330
A
100
AcDbEntity
  8
001
  6
PHANTOM
370
     0
100
AcDbSpline
210
0.0
220
0.0
230
1.0
 70
     8
 71
     3
 72
     9
 73
     5
 74
     0
 42
0.0000000001
 43
0.0000000001
 40
0.0
 40
0.0
 40
0.0
 40
0.0
 40
0.5000000270905927
 40
1.0
 40
1.0
 40
1.0
 40
1.0
 10
-128.3903411380661
 20
41.60867416410624
 30
0.0
 10
-128.3903834695139
 20
41.60764363568709
 30
0.0
 10
-128.3904681324048
 20
41.60558257896047
 30
0.0
 10
-128.3910474921704
 20
41.60360281511272
 30
0.0
 10
-128.3913371720376
 20
41.60261293324249
 30
0.0
  0
SPLINE
  5
304C
330
A
100
AcDbEntity
  8
001
  6
PHANTOM
370
     0
100
AcDbSpline
210
0.0
220
0.0
230
1.0
 70
     8
 71
     3
 72
     9
 73
     5
 74
     0
 42
0.0000000001
 43
0.0000000001
 40
0.0
 40
0.0
 40
0.0
 40
0.0
 40
0.4999999729094029
 40
1.0
 40
1.0
 40
1.0
 40
1.0
 10
-128.3913371720376
 20
41.61473539496999
 30
0.0
 10
-128.3910474921704
 20
41.61374551309975
 30
0.0
 10
-128.3904681324048
 20
41.61176574925201
 30
0.0
 10
-128.3903834695139
 20
41.60970469252538
 30
0.0
 10
-128.3903411380661
 20
41.60867416410624
 30
0.0
  0
SPLINE
  5
304D
330
A
100
AcDbEntity
  8
001
  6
PHANTOM
370
     0
100
AcDbSpline
210
0.0
220
0.0
230
1.0
 70
     8
 71
     3
 72
     9
 73
     5
 74
     0
 42
0.0000000001
 43
0.0000000001
 40
0.0
 40
0.0
 40
0.0
 40
0.0
 40
0.5000000276330457
 40
1.0
 40
1.0
 40
1.0
 40
1.0
 10
-128.3876987042861
 20
41.62351943197577
 30
0.0
 10
-128.3884947813509
 20
41.62213398785832
 30
0.0
 10
-128.3900869353923
 20
41.61936309977654
 30
0.0
 10
-128.3909204265045
 20
41.61627796318201
 30
0.0
 10
-128.3913371720376
 20
41.61473539496999
 30
0.0
  0
SPLINE
  5
304E
330
A
100
AcDbEntity
  8
001
  6
PHANTOM
370
     0
100
AcDbSpline
210
0.0
220
0.0
230
1.0
 70
     8
 71
     3
 72
    11
 73
     7
 74
     0
 42
0.0000000001
 43
0.0000000001
 40
0.0
 40
0.0
 40
0.0
 40
0.0
 40
0.2483343700239274
 40
0.4999999762780545
 40
0.7516655654561163
 40
1.0
 40
1.0
 40
1.0
 40
1.0
 10
-128.3791266405669
 20
41.63209142584581
 30
0.0
 10
-128.3796224622368
 20
41.63119680079029
 30
0.0
 10
-128.3806207566862
 20
41.62939554989419
 30
0.0
 10
-128.3826563184394
 20
41.62704906922973
 30
0.0
 10
-128.3850028150299
 20
41.62501352518145
 30
0.0
 10
-128.3868040747169
 20
41.62401524609644
 30
0.0
 10
-128.3876987042861
 20
41.62351943197577
 30
0.0
  0
SPLINE
  5
304F
330
A
100
AcDbEntity
  8
001
  6
PHANTOM
370
     0
100
AcDbSpline
210
0.0
220
0.0
230
1.0
 70
     8
 71
     3
 72
     9
 73
     5
 74
     0
 42
0.0000000001
 43
0.0000000001
 40
0.0
 40
0.0
 40
0.0
 40
0.0
 40
0.4999999711878084
 40
1.0
 40
1.0
 40
1.0
 40
1.0
 10
-128.3703427929301
 20
41.63572977407753
 30
0.0
 10
-128.3718853253136
 20
41.63531304031432
 30
0.0
 10
-128.3749703902585
 20
41.63447957273988
 30
0.0
 10
-128.3777412237442
 20
41.63288747484108
 30
0.0
 10
-128.3791266405669
 20
41.63209142584581
 30
0.0
  0
SPLINE
  5
3050
330
A
100
AcDbEntity
  8
001
  6
PHANTOM
370
     0
100
AcDbSpline
210
0.0
220
0.0
230
1.0
 70
     8
 71
     3
 72
    11
 73
     7
 74
     0
 42
0.0000000001
 43
0.0000000001
 40
0.0
 40
0.0
 40
0.0
 40
0.0
 40
0.2483346741278186
 40
0.5000000000000848
 40
0.7516653258721816
 40
1.0
 40
1.0
 40
1.0
 40
1.0
 10
-128.3582203312026
 20
41.63572977407753
 30
0.0
 10
-128.3592035073904
 20
41.63544777462505
 30
0.0
 10
-128.3611830460742
 20
41.63487999355811
 30
0.0
 10
-128.3642815620663
 20
41.63466012626066
 30
0.0
 10
-128.3673800780584
 20
41.63487999355811
 30
0.0
 10
-128.3693596167422
 20
41.63544777462505
 30
0.0
 10
-128.3703427929301
 20
41.63572977407753
 30
0.0
  0
SPLINE
  5
3051
330
A
100
AcDbEntity
  8
001
  6
PHANTOM
370
     0
100
AcDbSpline
210
0.0
220
0.0
230
1.0
 70
     8
 71
     3
 72
     9
 73
     5
 74
     0
 42
0.0000000001
 43
0.0000000001
 40
0.0
 40
0.0
 40
0.0
 40
0.0
 40
0.5000000276330457
 40
1.0
 40
1.0
 40
1.0
 40
1.0
 10
-128.3494362941968
 20
41.63209130632608
 30
0.0
 10
-128.3508217383142
 20
41.6328873833908
 30
0.0
 10
-128.353592626396
 20
41.63447953743223
 30
0.0
 10
-128.3566777629905
 20
41.63531302854445
 30
0.0
 10
-128.3582203312026
 20
41.63572977407753
 30
0.0
  0
SPLINE
  5
3052
330
A
100
AcDbEntity
  8
001
  6
PHANTOM
370
     0
100
AcDbSpline
210
0.0
220
0.0
230
1.0
 70
     8
 71
     3
 72
    11
 73
     7
 74
     0
 42
0.0000000001
 43
0.0000000001
 40
0.0
 40
0.0
 40
0.0
 40
0.0
 40
0.2483346929188147
 40
0.5
 40
0.7516653070811853
 40
1.0
 40
1.0
 40
1.0
 40
1.0
 10
-128.3408644198464
 20
41.62351943197577
 30
0.0
 10
-128.3417590343254
 20
41.62401523854888
 30
0.0
 10
-128.3435602616699
 20
41.62501350135155
 30
0.0
 10
-128.3459067110946
 20
41.62704901507793
 30
0.0
 10
-128.347942224821
 20
41.62939546450264
 30
0.0
 10
-128.3489404876237
 20
41.63119669184714
 30
0.0
 10
-128.3494362941968
 20
41.63209130632608
 30
0.0
  0
SPLINE
  5
3053
330
A
100
AcDbEntity
  8
001
  6
PHANTOM
370
     0
100
AcDbSpline
210
0.0
220
0.0
230
1.0
 70
     8
 71
     3
 72
     9
 73
     5
 74
     0
 42
0.0000000001
 43
0.0000000001
 40
0.0
 40
0.0
 40
0.0
 40
0.0
 40
0.4999999723669545
 40
1.0
 40
1.0
 40
1.0
 40
1.0
 10
-128.337225952095
 20
41.61473539496999
 30
0.0
 10
-128.3376426976281
 20
41.61627796318201
 30
0.0
 10
-128.3384761887403
 20
41.61936309977654
 30
0.0
 10
-128.3400683427817
 20
41.62213398785832
 30
0.0
 10
-128.3408644198464
 20
41.62351943197577
 30
0.0
  0
SPLINE
  5
3054
330
A
100
AcDbEntity
  8
001
  6
PHANTOM
370
     0
100
AcDbSpline
210
0.0
220
0.0
230
1.0
 70
     8
 71
     3
 72
     9
 73
     5
 74
     0
 42
0.0000000001
 43
0.0000000001
 40
0.0
 40
0.0
 40
0.0
 40
0.0
 40
0.5000000270905744
 40
1.0
 40
1.0
 40
1.0
 40
1.0
 10
-128.3382219860665
 20
41.60867416410624
 30
0.0
 10
-128.3381796546188
 20
41.60970469252538
 30
0.0
 10
-128.3380949917278
 20
41.61176574925201
 30
0.0
 10
-128.3375156319621
 20
41.61374551309975
 30
0.0
 10
-128.337225952095
 20
41.61473539496999
 30
0.0
  0
SPLINE
  5
3055
330
A
100
AcDbEntity
  8
001
  6
PHANTOM
370
     0
100
AcDbSpline
210
0.0
220
0.0
230
1.0
 70
     8
 71
     3
 72
     9
 73
     5
 74
     0
 42
0.0000000001
 43
0.0000000001
 40
0.0
 40
0.0
 40
0.0
 40
0.0
 40
0.4999999729093846
 40
1.0
 40
1.0
 40
1.0
 40
1.0
 10
-128.337225952095
 20
41.60261293324249
 30
0.0
 10
-128.3375156319621
 20
41.60360281511272
 30
0.0
 10
-128.3380949917278
 20
41.60558257896047
 30
0.0
 10
-128.3381796546188
 20
41.60764363568709
 30
0.0
 10
-128.3382219860665
 20
41.60867416410624
 30
0.0
  0
SPLINE
  5
3056
330
A
100
AcDbEntity
  8
001
  6
PHANTOM
370
     0
100
AcDbSpline
210
0.0
220
0.0
230
1.0
 70
     8
 71
     3
 72
     9
 73
     5
 74
     0
 42
0.0000000001
 43
0.0000000001
 40
0.0
 40
0.0
 40
0.0
 40
0.0
 40
0.5000000276330457
 40
1.0
 40
1.0
 40
1.0
 40
1.0
 10
-128.3408644198464
 20
41.59382889623671
 30
0.0
 10
-128.3400683427817
 20
41.59521434035418
 30
0.0
 10
-128.3384761887403
 20
41.59798522843596
 30
0.0
 10
-128.3376426976281
 20
41.60107036503048
 30
0.0
 10
-128.337225952095
 20
41.60261293324249
 30
0.0
  0
SPLINE
  5
3057
330
A
100
AcDbEntity
  8
001
  6
PHANTOM
370
     0
100
AcDbSpline
210
0.0
220
0.0
230
1.0
 70
     8
 71
     3
 72
    11
 73
     7
 74
     0
 42
0.0000000001
 43
0.0000000001
 40
0.0
 40
0.0
 40
0.0
 40
0.0
 40
0.2483346929188147
 40
0.5
 40
0.7516653070811853
 40
1.0
 40
1.0
 40
1.0
 40
1.0
 10
-128.3494362941968
 20
41.5852570218864
 30
0.0
 10
-128.3489404876237
 20
41.58615163636535
 30
0.0
 10
-128.347942224821
 20
41.58795286370984
 30
0.0
 10
-128.3459067110946
 20
41.59029931313456
 30
0.0
 10
-128.3435602616699
 20
41.59233482686094
 30
0.0
 10
-128.3417590343254
 20
41.59333308966361
 30
0.0
 10
-128.3408644198464
 20
41.59382889623671
 30
0.0
  0
SPLINE
  5
3058
330
A
100
AcDbEntity
  8
001
  6
PHANTOM
370
     0
100
AcDbSpline
210
0.0
220
0.0
230
1.0
 70
     8
 71
     3
 72
     9
 73
     5
 74
     0
 42
0.0000000001
 43
0.0000000001
 40
0.0
 40
0.0
 40
0.0
 40
0.0
 40
0.4999999723669545
 40
1.0
 40
1.0
 40
1.0
 40
1.0
 10
-128.3582203312026
 20
41.58161855413496
 30
0.0
 10
-128.3566777629905
 20
41.58203529966804
 30
0.0
 10
-128.353592626396
 20
41.58286879078025
 30
0.0
 10
-128.3508217383142
 20
41.58446094482169
 30
0.0
 10
-128.3494362941968
 20
41.5852570218864
 30
0.0
  0
SPLINE
  5
3059
330
A
100
AcDbEntity
  8
001
  6
PHANTOM
370
     0
100
AcDbSpline
210
0.0
220
0.0
230
1.0
 70
     8
 71
     3
 72
     9
 73
     5
 74
     0
 42
0.0000000001
 43
0.0000000001
 40
0.0
 40
0.0
 40
0.0
 40
0.0
 40
0.5000022670905561
 40
1.0
 40
1.0
 40
1.0
 40
1.0
 10
-128.3808517697292
 20
41.58404143793116
 30
0.0
 10
-128.3808138862627
 20
41.58397393602778
 30
0.0
 10
-128.3807381196733
 20
41.58383893283318
 30
0.0
 10
-128.3806147301018
 20
41.58374543713164
 30
0.0
 10
-128.3805530355957
 20
41.58369868949283
 30
0.0
  0
SPLINE
  5
305A
330
A
100
AcDbEntity
  8
001
  6
PHANTOM
370
     0
100
AcDbSpline
210
0.0
220
0.0
230
1.0
 70
     8
 71
     3
 72
    12
 73
     8
 74
     0
 42
0.0000000001
 43
0.0000000001
 40
0.0
 40
0.0
 40
0.0
 40
0.0
 40
0.2392221546395394
 40
0.4952502635319125
 40
0.7067266453427578
 40
0.8432102770535395
 40
1.0
 40
1.0
 40
1.0
 40
1.0
 10
-128.3808517697292
 20
41.58404143793116
 30
0.0
 10
-128.3808211246592
 20
41.58406284124382
 30
0.0
 10
-128.3807576816266
 20
41.58410715150539
 30
0.0
 10
-128.3803767046129
 20
41.58436817845548
 30
0.0
 10
-128.3799368281125
 20
41.58467889002518
 30
0.0
 10
-128.3795178677772
 20
41.58497469471611
 30
0.0
 10
-128.3792630032662
 20
41.58515855957221
 30
0.0
 10
-128.379126747669
 20
41.58525685735274
 30
0.0
  0
SPLINE
  5
305B
330
A
100
AcDbEntity
  8
001
  6
PHANTOM
370
     0
100
AcDbSpline
210
0.0
220
0.0
230
1.0
 70
     8
 71
     3
 72
    12
 73
     8
 74
     0
 42
0.0000000001
 43
0.0000000001
 40
0.0
 40
0.0
 40
0.0
 40
0.0
 40
0.1449759564164911
 40
0.2776344514165631
 40
0.5050792386180643
 40
0.7587885437196689
 40
1.0
 40
1.0
 40
1.0
 40
1.0
 10
-128.379126747669
 20
41.58525685735274
 30
0.0
 10
-128.3792309075417
 20
41.58514160936879
 30
0.0
 10
-128.3794303776457
 20
41.58492090511138
 30
0.0
 10
-128.3797772744335
 20
41.58453783697842
 30
0.0
 10
-128.3801520063508
 20
41.58413034608199
 30
0.0
 10
-128.380472975764
 20
41.58378288450182
 30
0.0
 10
-128.380526802063
 20
41.58372627801599
 30
0.0
 10
-128.3805530355957
 20
41.58369868949283
 30
0.0
  0
ARC
  5
305C
330
A
100
AcDbEntity
  8
001
  6
PHANTOM
370
     0
100
AcDbCircle
 10
-128.3961013672197
 20
41.57685435895273
 30
0.0
 40
0.0168583598291441
100
AcDbArc
 50
25.2343280061
 51
64.7656713331
  0
SPLINE
  5
305D
330
A
100
AcDbEntity
  8
001
  6
PHANTOM
370
     0
100
AcDbSpline
210
0.0
220
0.0
230
1.0
 70
     8
 71
     3
 72
    12
 73
     8
 74
     0
 42
0.0000000001
 43
0.0000000001
 40
0.0
 40
0.0
 40
0.0
 40
0.0
 40
0.1551773209541245
 40
0.2911232631545764
 40
0.504737595741307
 40
0.7607597153801203
 40
1.0
 40
1.0
 40
1.0
 40
1.0
 10
-128.3876987042861
 20
41.59382889623671
 30
0.0
 10
-128.3877960742946
 20
41.5936941135251
 30
0.0
 10
-128.3879787470872
 20
41.59344125194339
 30
0.0
 10
-128.3882748995064
 20
41.59302195847527
 30
0.0
 10
-128.3885867042659
 20
41.59258011908652
 30
0.0
 10
-128.3888485782886
 20
41.59219808310265
 30
0.0
 10
-128.3888928853683
 20
41.59213461408472
 30
0.0
 10
-128.3889142882414
 20
41.59210395489115
 30
0.0
  0
SPLINE
  5
305E
330
A
100
AcDbEntity
  8
001
  6
PHANTOM
370
     0
100
AcDbSpline
210
0.0
220
0.0
230
1.0
 70
     8
 71
     3
 72
    12
 73
     8
 74
     0
 42
0.0000000001
 43
0.0000000001
 40
0.0
 40
0.0
 40
0.0
 40
0.0
 40
0.2411872724456035
 40
0.4949150798381364
 40
0.7209764409867123
 40
0.8539824747940796
 40
1.0
 40
1.0
 40
1.0
 40
1.0
 10
-128.3704362208824
 20
41.57950816786765
 30
0.0
 10
-128.370435267947
 20
41.57954622082756
 30
0.0
 10
-128.3704333125283
 20
41.57962430531144
 30
0.0
 10
-128.3704145494529
 20
41.58009608880084
 30
0.0
 10
-128.3703916267865
 20
41.58064778764025
 30
0.0
 10
-128.370366032497
 20
41.58116368318794
 30
0.0
 10
-128.3703507765914
 20
41.5814622889351
 30
0.0
 10
-128.3703427929301
 20
41.58161855413496
 30
0.0
  0
ARC
  5
305F
330
A
100
AcDbEntity
  8
001
  6
PHANTOM
370
     0
100
AcDbCircle
 10
-128.3642815620664
 20
41.60867416410622
 30
0.0
 40
0.029808306837654
100
AcDbArc
 50
236.9158352401
 51
258.0841644024999
  0
SPLINE
  5
3060
330
A
100
AcDbEntity
  8
001
  6
PHANTOM
370
     0
100
AcDbSpline
210
0.0
220
0.0
230
1.0
 70
     8
 71
     3
 72
     9
 73
     5
 74
     0
 42
0.0000000001
 43
0.0000000001
 40
0.0
 40
0.0
 40
0.0
 40
0.0
 40
0.5000022670905561
 40
1.0
 40
1.0
 40
1.0
 40
1.0
 10
-128.3889142882414
 20
41.62524437176912
 30
0.0
 10
-128.3889817901448
 20
41.62520648830266
 30
0.0
 10
-128.3891167933394
 20
41.62513072171328
 30
0.0
 10
-128.3892102890409
 20
41.62500733214172
 30
0.0
 10
-128.3892570366797
 20
41.62494563763568
 30
0.0
  0
SPLINE
  5
3061
330
A
100
AcDbEntity
  8
001
  6
PHANTOM
370
     0
100
AcDbSpline
210
0.0
220
0.0
230
1.0
 70
     8
 71
     3
 72
    12
 73
     8
 74
     0
 42
0.0000000001
 43
0.0000000001
 40
0.0
 40
0.0
 40
0.0
 40
0.0
 40
0.2392399038489632
 40
0.4952543405354012
 40
0.7090951639891676
 40
0.8449875672828985
 40
1.0
 40
1.0
 40
1.0
 40
1.0
 10
-128.3889142882414
 20
41.62524437176912
 30
0.0
 10
-128.3888928962864
 20
41.62521371080187
 30
0.0
 10
-128.3888486124591
 20
41.62515023904456
 30
0.0
 10
-128.3885866249695
 20
41.62476809735792
 30
0.0
 10
-128.3882747053216
 20
41.62432606829474
 30
0.0
 10
-128.3879785190847
 20
41.62390673083747
 30
0.0
 10
-128.3877959751829
 20
41.62365406712662
 30
0.0
 10
-128.3876987042861
 20
41.62351943197577
 30
0.0
  0
SPLINE
  5
3062
330
A
100
AcDbEntity
  8
001
  6
PHANTOM
370
     0
100
AcDbSpline
210
0.0
220
0.0
230
1.0
 70
     8
 71
     3
 72
    12
 73
     8
 74
     0
 42
0.0000000001
 43
0.0000000001
 40
0.0
 40
0.0
 40
0.0
 40
0.0
 40
0.1460003641618999
 40
0.2789990584338036
 40
0.5050850821528018
 40
0.7587970143366756
 40
1.0
 40
1.0
 40
1.0
 40
1.0
 10
-128.3876987042861
 20
41.62351943197577
 30
0.0
 10
-128.3878148325396
 20
41.62362427088706
 30
0.0
 10
-128.3880367475571
 20
41.62382461256227
 30
0.0
 10
-128.3884196489465
 20
41.62417131457849
 30
0.0
 10
-128.3888259603845
 20
41.62454521099659
 30
0.0
 10
-128.3891728566359
 20
41.62486557298993
 30
0.0
 10
-128.3892294534926
 20
41.62491940293672
 30
0.0
 10
-128.3892570366797
 20
41.62494563763568
 30
0.0
  0
SPLINE
  5
3063
330
A
100
AcDbEntity
  8
001
  6
PHANTOM
370
     0
100
AcDbSpline
210
0.0
220
0.0
230
1.0
 70
     8
 71
     3
 72
    12
 73
     8
 74
     0
 42
0.0000000001
 43
0.0000000001
 40
0.0
 40
0.0
 40
0.0
 40
0.0
 40
0.2411872724456035
 40
0.4949150798381364
 40
0.7209764409867123
 40
0.8539824747940796
 40
1.0
 40
1.0
 40
1.0
 40
1.0
 10
-128.3934475583049
 20
41.61482882292237
 30
0.0
 10
-128.393409505345
 20
41.61482786998697
 30
0.0
 10
-128.3933314208611
 20
41.61482591456827
 30
0.0
 10
-128.3928596373717
 20
41.61480715149287
 30
0.0
 10
-128.3923079385323
 20
41.6147842288265
 30
0.0
 10
-128.3917920429846
 20
41.61475863453697
 30
0.0
 10
-128.3914934372374
 20
41.6147433786313
 30
0.0
 10
-128.3913371720376
 20
41.61473539496999
 30
0.0
  0
ARC
  5
3064
330
A
100
AcDbEntity
  8
001
  6
PHANTOM
370
     0
100
AcDbCircle
 10
-128.3642815620664
 20
41.60867416410622
 30
0.0
 40
0.029808306837654
100
AcDbArc
 50
146.9158352400999
 51
168.0841644025
  0
SPLINE
  5
3065
330
A
100
AcDbEntity
  8
001
  6
PHANTOM
370
     0
100
AcDbSpline
210
0.0
220
0.0
230
1.0
 70
     8
 71
     3
 72
    12
 73
     8
 74
     0
 42
0.0000000001
 43
0.0000000001
 40
0.0
 40
0.0
 40
0.0
 40
0.0
 40
0.1569430863111177
 40
0.2934791902983702
 40
0.5047657173082949
 40
0.7607693545885445
 40
1.0
 40
1.0
 40
1.0
 40
1.0
 10
-128.3791266405669
 20
41.63209142584581
 30
0.0
 10
-128.3792630434535
 20
41.63218981163509
 30
0.0
 10
-128.3795181130436
 20
41.63237379031454
 30
0.0
 10
-128.3799370847563
 20
41.63266958447153
 30
0.0
 10
-128.3803767708388
 20
41.63298021070059
 30
0.0
 10
-128.3807576539576
 20
41.63324119932567
 30
0.0
 10
-128.3808211152933
 20
41.63328549335805
 30
0.0
 10
-128.3808517712814
 20
41.63330689028133
 30
0.0
  0
ARC
  5
3066
330
A
100
AcDbEntity
  8
001
  6
PHANTOM
370
     0
100
AcDbCircle
 10
-128.3961013672197
 20
41.64049396925973
 30
0.0
 40
0.0168583598291441
100
AcDbArc
 50
295.2343280061
 51
334.7656713330999
  0
SPLINE
  5
3067
330
A
100
AcDbEntity
  8
001
  6
PHANTOM
370
     0
100
AcDbSpline
210
0.0
220
0.0
230
1.0
 70
     8
 71
     3
 72
     9
 73
     5
 74
     0
 42
0.0000000001
 43
0.0000000001
 40
0.0
 40
0.0
 40
0.0
 40
0.0
 40
0.4999995591695329
 40
1.0
 40
1.0
 40
1.0
 40
1.0
 10
-128.3934164366089
 20
41.60297310284566
 30
0.0
 10
-128.3934373792009
 20
41.6028985843294
 30
0.0
 10
-128.3934792644219
 20
41.60274954716547
 30
0.0
 10
-128.3934581270168
 20
41.6025961859603
 30
0.0
 10
-128.3934475583049
 20
41.60251950529011
 30
0.0
  0
SPLINE
  5
3068
330
A
100
AcDbEntity
  8
001
  6
PHANTOM
370
     0
100
AcDbSpline
210
0.0
220
0.0
230
1.0
 70
     8
 71
     3
 72
    12
 73
     8
 74
     0
 42
0.0000000001
 43
0.0000000001
 40
0.0
 40
0.0
 40
0.0
 40
0.0
 40
0.2392314152844885
 40
0.4952617843885898
 40
0.7088520444336523
 40
0.8448025820917271
 40
1.0
 40
1.0
 40
1.0
 40
1.0
 10
-128.3934164366089
 20
41.60297310284566
 30
0.0
 10
-128.3933796275206
 20
41.60296656000314
 30
0.0
 10
-128.3933034245908
 20
41.60295301487629
 30
0.0
 10
-128.3928481221158
 20
41.60286804524949
 30
0.0
 10
-128.3923152489374
 20
41.60277610066212
 30
0.0
 10
-128.3918093418991
 20
41.60268902769955
 30
0.0
 10
-128.3915013488112
 20
41.60263939181908
 30
0.0
 10
-128.3913371720376
 20
41.60261293324249
 30
0.0
  0
SPLINE
  5
3069
330
A
100
AcDbEntity
  8
001
  6
PHANTOM
370
     0
100
AcDbSpline
210
0.0
220
0.0
230
1.0
 70
     8
 71
     3
 72
    12
 73
     8
 74
     0
 42
0.0000000001
 43
0.0000000001
 40
0.0
 40
0.0
 40
0.0
 40
0.0
 40
0.1459999861195479
 40
0.278998716113623
 40
0.5050850863319662
 40
0.7587968653315928
 40
1.0
 40
1.0
 40
1.0
 40
1.0
 10
-128.3913371720376
 20
41.60261293324249
 30
0.0
 10
-128.3914934189685
 20
41.60260495066908
 30
0.0
 10
-128.3917919990867
 20
41.60258969636808
 30
0.0
 10
-128.3923079062447
 20
41.60256409920364
 30
0.0
 10
-128.3928595975118
 20
41.60254117858188
 30
0.0
 10
-128.3933314184201
 20
41.6025224167324
 30
0.0
 10
-128.393409502854
 20
41.60252045927977
 30
0.0
 10
-128.3934475583049
 20
41.60251950529011
 30
0.0
  0
SPLINE
  5
306A
330
A
100
AcDbEntity
  8
001
  6
PHANTOM
370
     0
100
AcDbSpline
210
0.0
220
0.0
230
1.0
 70
     8
 71
     3
 72
    12
 73
     8
 74
     0
 42
0.0000000001
 43
0.0000000001
 40
0.0
 40
0.0
 40
0.0
 40
0.0
 40
0.2411872148592634
 40
0.4949152414031149
 40
0.7209767340601053
 40
0.8539824010259152
 40
1.0
 40
1.0
 40
1.0
 40
1.0
 10
-128.3892570366797
 20
41.59240269212901
 30
0.0
 10
-128.3892294554967
 20
41.59242892532652
 30
0.0
 10
-128.3891728590147
 20
41.59248275574734
 30
0.0
 10
-128.3888259890652
 20
41.59280309088253
 30
0.0
 10
-128.388419669959
 20
41.59317699160253
 30
0.0
 10
-128.388036780343
 20
41.59352368801091
 30
0.0
 10
-128.3878148461872
 20
41.59372404567763
 30
0.0
 10
-128.3876987042861
 20
41.59382889623671
 30
0.0
  0
ARC
  5
306B
330
A
100
AcDbEntity
  8
001
  6
PHANTOM
370
     0
100
AcDbCircle
 10
-128.3642815620664
 20
41.60867416410622
 30
0.0
 40
0.0298083068376541
100
AcDbArc
 50
191.9158352400999
 51
213.0841644025
  0
ARC
  5
306C
330
A
100
AcDbEntity
  8
001
  6
PHANTOM
370
     0
100
AcDbCircle
 10
-128.4092815620664
 20
41.60867416410622
 30
0.0
 40
0.0168583598290769
100
AcDbArc
 50
340.2343286669
 51
19.76567133309999
  0
SPLINE
  5
306D
330
A
100
AcDbEntity
  8
001
  6
PHANTOM
370
     0
100
AcDbSpline
210
0.0
220
0.0
230
1.0
 70
     8
 71
     3
 72
    12
 73
     8
 74
     0
 42
0.0000000001
 43
0.0000000001
 40
0.0
 40
0.0
 40
0.0
 40
0.0
 40
0.155177210564852
 40
0.2911232964661254
 40
0.5047375910771418
 40
0.760759621981898
 40
1.0
 40
1.0
 40
1.0
 40
1.0
 10
-128.3913371720376
 20
41.61473539496999
 30
0.0
 10
-128.3915013285702
 20
41.61470893984438
 30
0.0
 10
-128.3918092977027
 20
41.61465930817907
 30
0.0
 10
-128.3923151945505
 20
41.61457223592305
 30
0.0
 10
-128.3928481013246
 20
41.61448028741229
 30
0.0
 10
-128.3933034129757
 20
41.61439531865475
 30
0.0
 10
-128.3933796228388
 20
41.61438177010142
 30
0.0
 10
-128.3934164366089
 20
41.61437522536682
 30
0.0
  0
LINE
  5
306E
330
A
100
AcDbEntity
  8
001
  6
PHANTOM
370
     0
100
AcDbLine
 10
-128.3582988773962
 20
41.57949028026547
 30
0.0
 11
-128.3581269032502
 21
41.57950816786772
 31
0.0
  0
LINE
  5
306F
330
A
100
AcDbEntity
  8
001
  6
PHANTOM
370
     0
100
AcDbLine
 10
-128.3585805008057
 20
41.57953928956373
 30
0.0
 11
-128.3582988773962
 21
41.57949028026547
 31
0.0
  0
SPLINE
  5
3070
330
A
100
AcDbEntity
  8
001
  6
PHANTOM
370
     0
100
AcDbSpline
210
0.0
220
0.0
230
1.0
 70
     8
 71
     3
 72
    12
 73
     8
 74
     0
 42
0.0000000001
 43
0.0000000001
 40
0.0
 40
0.0
 40
0.0
 40
0.0
 40
0.2392314152844885
 40
0.4952617843885898
 40
0.7088520444336523
 40
0.8448025820917271
 40
1.0
 40
1.0
 40
1.0
 40
1.0
 10
-128.3585805008057
 20
41.57953928956369
 30
0.0
 10
-128.3585739579632
 20
41.57957609865195
 30
0.0
 10
-128.3585604128363
 20
41.5796523015817
 30
0.0
 10
-128.3584754432095
 20
41.58010760405674
 30
0.0
 10
-128.3583834986222
 20
41.58064047723511
 30
0.0
 10
-128.3582964256596
 20
41.58114638427341
 30
0.0
 10
-128.3582467897792
 20
41.58145437736137
 30
0.0
 10
-128.3582203312026
 20
41.58161855413496
 30
0.0
  0
SPLINE
  5
3071
330
A
100
AcDbEntity
  8
001
  6
PHANTOM
370
     0
100
AcDbSpline
210
0.0
220
0.0
230
1.0
 70
     8
 71
     3
 72
    12
 73
     8
 74
     0
 42
0.0000000001
 43
0.0000000001
 40
0.0
 40
0.0
 40
0.0
 40
0.0
 40
0.1459999861195479
 40
0.278998716113623
 40
0.5050850863319662
 40
0.7587968653315928
 40
1.0
 40
1.0
 40
1.0
 40
1.0
 10
-128.3582203312026
 20
41.58161855413496
 30
0.0
 10
-128.3582123486291
 20
41.58146230720406
 30
0.0
 10
-128.3581970943281
 20
41.58116372708582
 30
0.0
 10
-128.3581714971637
 20
41.58064781992781
 30
0.0
 10
-128.3581485765419
 20
41.58009612866076
 30
0.0
 10
-128.3581298146925
 20
41.57962430775241
 30
0.0
 10
-128.3581278572398
 20
41.57954622331858
 30
0.0
 10
-128.3581269032502
 20
41.57950816786765
 30
0.0
  0
SPLINE
  5
3072
330
A
100
AcDbEntity
  8
001
  6
PHANTOM
370
     0
100
AcDbSpline
210
0.0
220
0.0
230
1.0
 70
     8
 71
     3
 72
    12
 73
     8
 74
     0
 42
0.0000000001
 43
0.0000000001
 40
0.0
 40
0.0
 40
0.0
 40
0.0
 40
0.241187481224454
 40
0.4949151577248001
 40
0.7209766878338109
 40
0.8539823768349128
 40
1.0
 40
1.0
 40
1.0
 40
1.0
 10
-128.3480100885369
 20
41.58369868949283
 30
0.0
 10
-128.3480363231165
 20
41.58372627139684
 30
0.0
 10
-128.3480901563048
 20
41.58378286928616
 30
0.0
 10
-128.3484104884979
 20
41.58412973690269
 30
0.0
 10
-128.348784389644
 20
41.58453605627825
 30
0.0
 10
-128.3491310859534
 20
41.58491894581556
 30
0.0
 10
-128.3493314436316
 20
41.5851408799805
 30
0.0
 10
-128.3494362941968
 20
41.5852570218864
 30
0.0
  0
ARC
  5
3073
330
A
100
AcDbEntity
  8
001
  6
PHANTOM
370
     0
100
AcDbCircle
 10
-128.3642815620664
 20
41.60867416410622
 30
0.0
 40
0.0298083068375898
100
AcDbArc
 50
281.9158352400999
 51
303.0841647599
  0
ARC
  5
3074
330
A
100
AcDbEntity
  8
001
  6
PHANTOM
370
     0
100
AcDbCircle
 10
-128.3642815620664
 20
41.56367416410622
 30
0.0
 40
0.0168583598291441
100
AcDbArc
 50
70.2343280061
 51
109.7656713330999
  0
SPLINE
  5
3075
330
A
100
AcDbEntity
  8
001
  6
PHANTOM
370
     0
100
AcDbSpline
210
0.0
220
0.0
230
1.0
 70
     8
 71
     3
 72
    12
 73
     8
 74
     0
 42
0.0000000001
 43
0.0000000001
 40
0.0
 40
0.0
 40
0.0
 40
0.0
 40
0.155177210564852
 40
0.2911232964661254
 40
0.5047375910771418
 40
0.760759621981898
 40
1.0
 40
1.0
 40
1.0
 40
1.0
 10
-128.3703427929301
 20
41.58161855413496
 30
0.0
 10
-128.3703163378044
 20
41.58145439760231
 30
0.0
 10
-128.3702667061391
 20
41.58114642846984
 30
0.0
 10
-128.3701796338831
 20
41.58064053162209
 30
0.0
 10
-128.3700876853723
 20
41.58010762484791
 30
0.0
 10
-128.3700027166148
 20
41.57965231319687
 30
0.0
 10
-128.3699891680615
 20
41.57957610333378
 30
0.0
 10
-128.3699826233269
 20
41.57953928956369
 30
0.0
  0
SPLINE
  5
3076
330
A
100
AcDbEntity
  8
001
  6
PHANTOM
370
     0
100
AcDbSpline
210
0.0
220
0.0
230
1.0
 70
     8
 71
     3
 72
    12
 73
     8
 74
     0
 42
0.0000000001
 43
0.0000000001
 40
0.0
 40
0.0
 40
0.0
 40
0.0
 40
0.1459329317563515
 40
0.278912287082284
 40
0.5050861630510145
 40
0.7587965221945743
 40
1.0
 40
1.0
 40
1.0
 40
1.0
 10
-128.3703427929301
 20
41.63572977407753
 30
0.0
 10
-128.3703507699659
 20
41.63588594983055
 30
0.0
 10
-128.3703660159649
 20
41.63618443856739
 30
0.0
 10
-128.3703916178253
 20
41.63670034994075
 30
0.0
 10
-128.3704145461766
 20
41.63725216042163
 30
0.0
 10
-128.3704332863433
 20
41.63772401699119
 30
0.0
 10
-128.3704352593223
 20
41.6378021036652
 30
0.0
 10
-128.3704362208824
 20
41.63784016034483
 30
0.0
  0
SPLINE
  5
3077
330
A
100
AcDbEntity
  8
001
  6
PHANTOM
370
     0
100
AcDbSpline
210
0.0
220
0.0
230
1.0
 70
     8
 71
     3
 72
     9
 73
     5
 74
     0
 42
0.0000000001
 43
0.0000000001
 40
0.0
 40
0.0
 40
0.0
 40
0.0
 40
0.4999995591695329
 40
1.0
 40
1.0
 40
1.0
 40
1.0
 10
-128.3699826233269
 20
41.6378090386488
 30
0.0
 10
-128.3700571418431
 20
41.63782998124082
 30
0.0
 10
-128.3702061790071
 20
41.63787186646179
 30
0.0
 10
-128.3703595402122
 20
41.6378507290567
 30
0.0
 10
-128.3704362208824
 20
41.63784016034483
 30
0.0
  0
SPLINE
  5
3078
330
A
100
AcDbEntity
  8
001
  6
PHANTOM
370
     0
100
AcDbSpline
210
0.0
220
0.0
230
1.0
 70
     8
 71
     3
 72
    12
 73
     8
 74
     0
 42
0.0000000001
 43
0.0000000001
 40
0.0
 40
0.0
 40
0.0
 40
0.0
 40
0.2392400362091194
 40
0.4952544357406142
 40
0.7090955466233965
 40
0.8449876918983251
 40
1.0
 40
1.0
 40
1.0
 40
1.0
 10
-128.3699826233269
 20
41.6378090386488
 30
0.0
 10
-128.3699891772975
 20
41.63777223104515
 30
0.0
 10
-128.3700027447717
 20
41.63769603506532
 30
0.0
 10
-128.3700877081915
 20
41.63724056824293
 30
0.0
 10
-128.3701797095905
 20
41.63670744529576
 30
0.0
 10
-128.3702667906556
 20
41.63620149416764
 30
0.0
 10
-128.3703163725552
 20
41.63589375629633
 30
0.0
 10
-128.3703427929301
 20
41.63572977407753
 30
0.0
  0
SPLINE
  5
3079
330
A
100
AcDbEntity
  8
001
  6
PHANTOM
370
     0
100
AcDbSpline
210
0.0
220
0.0
230
1.0
 70
     8
 71
     3
 72
    12
 73
     8
 74
     0
 42
0.0000000001
 43
0.0000000001
 40
0.0
 40
0.0
 40
0.0
 40
0.0
 40
0.2412035534399418
 40
0.4949158273642364
 40
0.7230510201312832
 40
0.8555397343156608
 40
1.0
 40
1.0
 40
1.0
 40
1.0
 10
-128.3805530340435
 20
41.63364963871965
 30
0.0
 10
-128.3805268090078
 20
41.63362204591717
 30
0.0
 10
-128.3804729989163
 20
41.63356542936043
 30
0.0
 10
-128.3801516825719
 20
41.63321766766837
 30
0.0
 10
-128.3797765057897
 20
41.63280955152108
 30
0.0
 10
-128.3794294959402
 20
41.63242635812838
 30
0.0
 10
-128.3792304602342
 20
41.6322062415672
 30
0.0
 10
-128.3791266405669
 20
41.63209142584581
 30
0.0
  0
ARC
  5
307A
330
A
100
AcDbEntity
  8
001
  6
PHANTOM
370
     0
100
AcDbCircle
 10
-128.3642815620664
 20
41.60867416410622
 30
0.0
 40
0.029808306837654
100
AcDbArc
 50
101.9158352400999
 51
123.0841644025999
  0
SPLINE
  5
307B
330
A
100
AcDbEntity
  8
001
  6
PHANTOM
370
     0
100
AcDbSpline
210
0.0
220
0.0
230
1.0
 70
     8
 71
     3
 72
    12
 73
     8
 74
     0
 42
0.0000000001
 43
0.0000000001
 40
0.0
 40
0.0
 40
0.0
 40
0.0
 40
0.1549957477967581
 40
0.2908791104985869
 40
0.5047451743164466
 40
0.7607514886650506
 40
1.0
 40
1.0
 40
1.0
 40
1.0
 10
-128.3582203312026
 20
41.63572977407753
 30
0.0
 10
-128.3582467482451
 20
41.63589373670468
 30
0.0
 10
-128.3582963248688
 20
41.63620144387614
 30
0.0
 10
-128.3583834108885
 20
41.63670742098708
 30
0.0
 10
-128.3584754102825
 20
41.63724053535765
 30
0.0
 10
-128.3585603748188
 20
41.63769603055571
 30
0.0
 10
-128.3585739452025
 20
41.63777222871659
 30
0.0
 10
-128.3585805008057
 20
41.63780903864879
 30
0.0
  0
ARC
  5
307C
330
A
100
AcDbEntity
  8
001
  6
PHANTOM
370
     0
100
AcDbCircle
 10
-128.3642815620664
 20
41.65367416410623
 30
0.0
 40
0.0168583598291441
100
AcDbArc
 50
250.2343280061
 51
289.7656713331
  0
SPLINE
  5
307D
330
A
100
AcDbEntity
  8
001
  6
PHANTOM
370
     0
100
AcDbSpline
210
0.0
220
0.0
230
1.0
 70
     8
 71
     3
 72
    12
 73
     8
 74
     0
 42
0.0000000001
 43
0.0000000001
 40
0.0
 40
0.0
 40
0.0
 40
0.0
 40
0.1459331231909012
 40
0.2789125446928971
 40
0.5050863921159053
 40
0.7587964646580888
 40
1.0
 40
1.0
 40
1.0
 40
1.0
 10
-128.3494362941968
 20
41.63209130632608
 30
0.0
 10
-128.3493315020853
 20
41.63220738037331
 30
0.0
 10
-128.3491312196967
 20
41.63242922519631
 30
0.0
 10
-128.3487845167812
 20
41.63281213169288
 30
0.0
 10
-128.3484105417331
 20
41.63321853483358
 30
0.0
 10
-128.3480901412067
 20
41.63356543726921
 30
0.0
 10
-128.3480363193986
 20
41.63362204842683
 30
0.0
 10
-128.3480100885369
 20
41.63364963871965
 30
0.0
  0
SPLINE
  5
307E
330
A
100
AcDbEntity
  8
001
  6
PHANTOM
370
     0
100
AcDbSpline
210
0.0
220
0.0
230
1.0
 70
     8
 71
     3
 72
     9
 73
     5
 74
     0
 42
0.0000000001
 43
0.0000000001
 40
0.0
 40
0.0
 40
0.0
 40
0.0
 40
0.5000031919797504
 40
1.0
 40
1.0
 40
1.0
 40
1.0
 10
-128.3477113528512
 20
41.63330689028133
 30
0.0
 10
-128.3477492369037
 20
41.63337439214466
 30
0.0
 10
-128.347825004525
 20
41.63350939500946
 30
0.0
 10
-128.3479483941288
 20
41.63360289101521
 30
0.0
 10
-128.3480100885369
 20
41.63364963871965
 30
0.0
  0
SPLINE
  5
307F
330
A
100
AcDbEntity
  8
001
  6
PHANTOM
370
     0
100
AcDbSpline
210
0.0
220
0.0
230
1.0
 70
     8
 71
     3
 72
    12
 73
     8
 74
     0
 42
0.0000000001
 43
0.0000000001
 40
0.0
 40
0.0
 40
0.0
 40
0.0
 40
0.2392398493938007
 40
0.4952544554242908
 40
0.7090952302041672
 40
0.8449876025664238
 40
1.0
 40
1.0
 40
1.0
 40
1.0
 10
-128.3477113528512
 20
41.63330689028133
 30
0.0
 10
-128.3477420136986
 20
41.63328549829611
 30
0.0
 10
-128.347805485237
 20
41.63324121438599
 30
0.0
 10
-128.3481876290309
 20
41.63297922718721
 30
0.0
 10
-128.3486296578216
 20
41.63266730735262
 30
0.0
 10
-128.3490489953484
 20
41.63237112112674
 30
0.0
 10
-128.3493016590505
 20
41.63218857722363
 30
0.0
 10
-128.3494362941968
 20
41.63209130632608
 30
0.0
  0
SPLINE
  5
3080
330
A
100
AcDbEntity
  8
001
  6
PHANTOM
370
     0
100
AcDbSpline
210
0.0
220
0.0
230
1.0
 70
     8
 71
     3
 72
    12
 73
     8
 74
     0
 42
0.0000000001
 43
0.0000000001
 40
0.0
 40
0.0
 40
0.0
 40
0.0
 40
0.2411947798794942
 40
0.4949136435760291
 40
0.7210678746032342
 40
0.8540508576006446
 40
1.0
 40
1.0
 40
1.0
 40
1.0
 10
-128.3581269032502
 20
41.63784016034483
 30
0.0
 10
-128.3581278636102
 20
41.63780210807938
 30
0.0
 10
-128.358129834197
 20
41.63772402767751
 30
0.0
 10
-128.3581485769244
 20
41.63725218148031
 30
0.0
 10
-128.3581715060378
 20
41.63670039173728
 30
0.0
 10
-128.3581971062337
 20
41.63618447390308
 30
0.0
 10
-128.3582123532931
 20
41.63588596606484
 30
0.0
 10
-128.3582203312026
 20
41.63572977407753
 30
0.0
  0
ARC
  5
3081
330
A
100
AcDbEntity
  8
001
  6
PHANTOM
370
     0
100
AcDbCircle
 10
-128.3642815620664
 20
41.60867416410622
 30
0.0
 40
0.0298083068376541
100
AcDbArc
 50
56.91583524010001
 51
78.08416440250001
  0
SPLINE
  5
3082
330
A
100
AcDbEntity
  8
001
  6
PHANTOM
370
     0
100
AcDbSpline
210
0.0
220
0.0
230
1.0
 70
     8
 71
     3
 72
    12
 73
     8
 74
     0
 42
0.0000000001
 43
0.0000000001
 40
0.0
 40
0.0
 40
0.0
 40
0.0
 40
0.1549955749439874
 40
0.2908793877397066
 40
0.5047453542388045
 40
0.7607513355348694
 40
1.0
 40
1.0
 40
1.0
 40
1.0
 10
-128.3408644198464
 20
41.62351943197577
 30
0.0
 10
-128.3407671603135
 20
41.62365405034845
 30
0.0
 10
-128.3405846338548
 20
41.6239066879469
 30
0.0
 10
-128.3402884344025
 20
41.62432604823172
 30
0.0
 10
-128.3399765175575
 20
41.62476806959845
 30
0.0
 10
-128.3397145151136
 20
41.62515023018772
 30
0.0
 10
-128.3396702294861
 20
41.62521370717264
 30
0.0
 10
-128.3396488358912
 20
41.62524437176912
 30
0.0
  0
ARC
  5
3083
330
A
100
AcDbEntity
  8
001
  6
PHANTOM
370
     0
100
AcDbCircle
 10
-128.3324617569129
 20
41.64049396925973
 30
0.0
 40
0.0168583598291441
100
AcDbArc
 50
205.2343286668999
 51
244.7656719938999
  0
SPLINE
  5
3084
330
A
100
AcDbEntity
  8
001
  6
PHANTOM
370
     0
100
AcDbSpline
210
0.0
220
0.0
230
1.0
 70
     8
 71
     3
 72
    12
 73
     8
 74
     0
 42
0.0000000001
 43
0.0000000001
 40
0.0
 40
0.0
 40
0.0
 40
0.0
 40
0.1459329317563515
 40
0.278912287082284
 40
0.5050861630510145
 40
0.7587965221945743
 40
1.0
 40
1.0
 40
1.0
 40
1.0
 10
-128.337225952095
 20
41.61473539496999
 30
0.0
 10
-128.337069776342
 20
41.61474337200589
 30
0.0
 10
-128.3367712876051
 20
41.61475861800484
 30
0.0
 10
-128.3362553762318
 20
41.61478421986521
 30
0.0
 10
-128.3357035657509
 20
41.61480714821658
 30
0.0
 10
-128.3352317091813
 20
41.61482588838327
 30
0.0
 10
-128.3351536225074
 20
41.61482786136228
 30
0.0
 10
-128.3351155658277
 20
41.61482882292237
 30
0.0
  0
LINE
  5
3085
330
A
100
AcDbEntity
  8
001
  6
PHANTOM
370
     0
100
AcDbLine
 10
-128.3350976782254
 20
41.61465684877622
 30
0.0
 11
-128.3351155658277
 21
41.61482882292247
 31
0.0
  0
LINE
  5
3086
330
A
100
AcDbEntity
  8
001
  6
PHANTOM
370
     0
100
AcDbLine
 10
-128.3351466875237
 20
41.61437522536672
 30
0.0
 11
-128.3350976782254
 21
41.61465684877622
 31
0.0
  0
SPLINE
  5
3087
330
A
100
AcDbEntity
  8
001
  6
PHANTOM
370
     0
100
AcDbSpline
210
0.0
220
0.0
230
1.0
 70
     8
 71
     3
 72
    12
 73
     8
 74
     0
 42
0.0000000001
 43
0.0000000001
 40
0.0
 40
0.0
 40
0.0
 40
0.0
 40
0.2392400362091194
 40
0.4952544357406142
 40
0.7090955466233965
 40
0.8449876918983251
 40
1.0
 40
1.0
 40
1.0
 40
1.0
 10
-128.3351466875238
 20
41.61437522536682
 30
0.0
 10
-128.3351834951274
 20
41.61438177933745
 30
0.0
 10
-128.3352596911072
 20
41.61439534681169
 30
0.0
 10
-128.3357151579296
 20
41.61448031023144
 30
0.0
 10
-128.3362482808768
 20
41.61457231163047
 30
0.0
 10
-128.3367542320049
 20
41.61465939269554
 30
0.0
 10
-128.3370619698762
 20
41.61470897459516
 30
0.0
 10
-128.337225952095
 20
41.61473539496999
 30
0.0
  0
SPLINE
  5
3088
330
A
100
AcDbEntity
  8
001
  6
PHANTOM
370
     0
100
AcDbSpline
210
0.0
220
0.0
230
1.0
 70
     8
 71
     3
 72
    12
 73
     8
 74
     0
 42
0.0000000001
 43
0.0000000001
 40
0.0
 40
0.0
 40
0.0
 40
0.0
 40
0.2411947731786942
 40
0.4949136902641004
 40
0.7210678141154202
 40
0.8540510929230274
 40
1.0
 40
1.0
 40
1.0
 40
1.0
 10
-128.3393060874529
 20
41.62494563763568
 30
0.0
 10
-128.3393336731558
 20
41.62491940914111
 30
0.0
 10
-128.3393902769614
 20
41.62486559022593
 30
0.0
 10
-128.3397371772501
 20
41.62454519860115
 30
0.0
 10
-128.3401435648446
 20
41.62417123773217
 30
0.0
 10
-128.3405264753394
 20
41.62382452976866
 30
0.0
 10
-128.3407483341173
 20
41.62362423468449
 30
0.0
 10
-128.3408644198464
 20
41.62351943197577
 30
0.0
  0
ARC
  5
3089
330
A
100
AcDbEntity
  8
001
  6
PHANTOM
370
     0
100
AcDbCircle
 10
-128.3642815620664
 20
41.60867416410622
 30
0.0
 40
0.0298083068375898
100
AcDbArc
 50
11.91583524009999
 51
33.0841647599
  0
SPLINE
  5
308A
330
A
100
AcDbEntity
  8
001
  6
PHANTOM
370
     0
100
AcDbSpline
210
0.0
220
0.0
230
1.0
 70
     8
 71
     3
 72
    12
 73
     8
 74
     0
 42
0.0000000001
 43
0.0000000001
 40
0.0
 40
0.0
 40
0.0
 40
0.0
 40
0.1549957477967581
 40
0.2908791104985869
 40
0.5047451743164466
 40
0.7607514886650506
 40
1.0
 40
1.0
 40
1.0
 40
1.0
 10
-128.337225952095
 20
41.60261293324249
 30
0.0
 10
-128.3370619894679
 20
41.6026393502851
 30
0.0
 10
-128.3367542822964
 20
41.60268892690875
 30
0.0
 10
-128.3362483051855
 20
41.6027760129284
 30
0.0
 10
-128.3357151908149
 20
41.60286801232245
 30
0.0
 10
-128.3352596956168
 20
41.60295297685871
 30
0.0
 10
-128.335183497456
 20
41.60296654724247
 30
0.0
 10
-128.3351466875238
 20
41.60297310284566
 30
0.0
  0
ARC
  5
308B
330
A
100
AcDbEntity
  8
001
  6
PHANTOM
370
     0
100
AcDbCircle
 10
-128.3192815620664
 20
41.60867416410622
 30
0.0
 40
0.0168583598291441
100
AcDbArc
 50
160.2343280061
 51
199.7656713331
  0
SPLINE
  5
308C
330
A
100
AcDbEntity
  8
001
  6
PHANTOM
370
     0
100
AcDbSpline
210
0.0
220
0.0
230
1.0
 70
     8
 71
     3
 72
    12
 73
     8
 74
     0
 42
0.0000000001
 43
0.0000000001
 40
0.0
 40
0.0
 40
0.0
 40
0.0
 40
0.1459331231909012
 40
0.2789125446928971
 40
0.5050863921159053
 40
0.7587964646580888
 40
1.0
 40
1.0
 40
1.0
 40
1.0
 10
-128.3408644198464
 20
41.59382889623671
 30
0.0
 10
-128.3407483457992
 20
41.5937241041252
 30
0.0
 10
-128.3405265009762
 20
41.59352382173662
 30
0.0
 10
-128.3401435944797
 20
41.59317711882112
 30
0.0
 10
-128.3397371913389
 20
41.59280314377303
 30
0.0
 10
-128.3393902889033
 20
41.59248274324667
 30
0.0
 10
-128.3393336777457
 20
41.59242892143852
 30
0.0
 10
-128.3393060874529
 20
41.5924026905768
 30
0.0
  0
SPLINE
  5
308D
330
A
100
AcDbEntity
  8
001
  6
PHANTOM
370
     0
100
AcDbSpline
210
0.0
220
0.0
230
1.0
 70
     8
 71
     3
 72
     9
 73
     5
 74
     0
 42
0.0000000001
 43
0.0000000001
 40
0.0
 40
0.0
 40
0.0
 40
0.0
 40
0.5000022670905561
 40
1.0
 40
1.0
 40
1.0
 40
1.0
 10
-128.3396488358912
 20
41.59210395644336
 30
0.0
 10
-128.3395813339879
 20
41.59214183990982
 30
0.0
 10
-128.3394463307933
 20
41.59221760649922
 30
0.0
 10
-128.3393528350917
 20
41.59234099607076
 30
0.0
 10
-128.3393060874529
 20
41.5924026905768
 30
0.0
  0
SPLINE
  5
308E
330
A
100
AcDbEntity
  8
001
  6
PHANTOM
370
     0
100
AcDbSpline
210
0.0
220
0.0
230
1.0
 70
     8
 71
     3
 72
    12
 73
     8
 74
     0
 42
0.0000000001
 43
0.0000000001
 40
0.0
 40
0.0
 40
0.0
 40
0.0
 40
0.2392313527243648
 40
0.4952614586300979
 40
0.7088522477541046
 40
0.8448026121500419
 40
1.0
 40
1.0
 40
1.0
 40
1.0
 10
-128.3396488358912
 20
41.59210395644336
 30
0.0
 10
-128.3396702376191
 20
41.59213461054898
 30
0.0
 10
-128.3397145438978
 20
41.59219807128224
 30
0.0
 10
-128.3399764052756
 20
41.59258010198747
 30
0.0
 10
-128.3402881930507
 20
41.5930219139268
 30
0.0
 10
-128.3405843519524
 20
41.59344121518785
 30
0.0
 10
-128.3407670382427
 20
41.59369409677168
 30
0.0
 10
-128.3408644198464
 20
41.59382889623671
 30
0.0
  0
SPLINE
  5
308F
330
A
100
AcDbEntity
  8
001
  6
PHANTOM
370
     0
100
AcDbSpline
210
0.0
220
0.0
230
1.0
 70
     8
 71
     3
 72
    12
 73
     8
 74
     0
 42
0.0000000001
 43
0.0000000001
 40
0.0
 40
0.0
 40
0.0
 40
0.0
 40
0.2411947798794942
 40
0.4949136435760291
 40
0.7210678746032342
 40
0.8540508576006446
 40
1.0
 40
1.0
 40
1.0
 40
1.0
 10
-128.3351155658277
 20
41.60251950529011
 30
0.0
 10
-128.3351536180932
 20
41.60252046565012
 30
0.0
 10
-128.335231698495
 20
41.60252243623699
 30
0.0
 10
-128.3357035446922
 20
41.60254117896438
 30
0.0
 10
-128.3362553344353
 20
41.60256410807773
 30
0.0
 10
-128.3367712522695
 20
41.60258970827363
 30
0.0
 10
-128.3370697601077
 20
41.60260495533303
 30
0.0
 10
-128.337225952095
 20
41.60261293324249
 30
0.0
  0
ARC
  5
3090
330
A
100
AcDbEntity
  8
001
  6
PHANTOM
370
     0
100
AcDbCircle
 10
-128.3642815620664
 20
41.60867416410622
 30
0.0
 40
0.029808306837654
100
AcDbArc
 50
326.9158352400999
 51
348.0841644024999
  0
ARC
  5
3091
330
A
100
AcDbEntity
  8
001
  6
PHANTOM
370
     0
100
AcDbCircle
 10
-128.3324617569129
 20
41.57685435895273
 30
0.0
 40
0.0168583598291441
100
AcDbArc
 50
115.2343280061
 51
154.7656713330999
  0
SPLINE
  5
3092
330
A
100
AcDbEntity
  8
001
  6
PHANTOM
370
     0
100
AcDbSpline
210
0.0
220
0.0
230
1.0
 70
     8
 71
     3
 72
    12
 73
     8
 74
     0
 42
0.0000000001
 43
0.0000000001
 40
0.0
 40
0.0
 40
0.0
 40
0.0
 40
0.1551773209541245
 40
0.2911232631545764
 40
0.504737595741307
 40
0.7607597153801203
 40
1.0
 40
1.0
 40
1.0
 40
1.0
 10
-128.3494362941968
 20
41.5852570218864
 30
0.0
 10
-128.3493015114852
 20
41.58515965187799
 30
0.0
 10
-128.3490486499035
 20
41.58497697908528
 30
0.0
 10
-128.3486293564353
 20
41.5846808266661
 30
0.0
 10
-128.3481875170466
 20
41.58436902190667
 30
0.0
 10
-128.3478054810627
 20
41.58410714788387
 30
0.0
 10
-128.3477420120448
 20
41.58406284080419
 30
0.0
 10
-128.3477113528512
 20
41.58404143793116
 30
0.0
  0
SPLINE
  5
3093
330
A
100
AcDbEntity
  8
001
  6
PHANTOM
370
     0
100
AcDbSpline
210
0.0
220
0.0
230
1.0
 70
     8
 71
     3
 72
     9
 73
     5
 74
     0
 42
0.0000000001
 43
0.0000000001
 40
0.0
 40
0.0
 40
0.0
 40
0.0
 40
0.4999980837253993
 40
1.0
 40
1.0
 40
1.0
 40
1.0
 10
-128.3805530340435
 20
41.63364963871965
 30
0.0
 10
-128.3806147290551
 20
41.63360289110574
 30
0.0
 10
-128.3807381195511
 20
41.63350939551959
 30
0.0
 10
-128.3808138872745
 20
41.63337439219989
 30
0.0
 10
-128.3808517712814
 20
41.63330689028133
 30
0.0
  0
SPLINE
  5
3094
330
A
100
AcDbEntity
  8
001
  6
PHANTOM
370
     0
100
AcDbSpline
210
0.0
220
0.0
230
1.0
 70
     8
 71
     3
 72
     9
 73
     5
 74
     0
 42
0.0000000001
 43
0.0000000001
 40
0.0
 40
0.0
 40
0.0
 40
0.0
 40
0.4999968080202497
 40
1.0
 40
1.0
 40
1.0
 40
1.0
 10
-128.3480100885369
 20
41.58369868949283
 30
0.0
 10
-128.3479483941288
 20
41.58374543719727
 30
0.0
 10
-128.347825004525
 20
41.58383893320301
 30
0.0
 10
-128.3477492369037
 20
41.58397393606782
 30
0.0
 10
-128.3477113528512
 20
41.58404143793116
 30
0.0
  0
SPLINE
  5
3095
330
A
100
AcDbEntity
  8
001
  6
PHANTOM
370
     0
100
AcDbSpline
210
0.0
220
0.0
230
1.0
 70
     8
 71
     3
 72
     9
 73
     5
 74
     0
 42
0.0000000001
 43
0.0000000001
 40
0.0
 40
0.0
 40
0.0
 40
0.0
 40
0.5000004408304672
 40
1.0
 40
1.0
 40
1.0
 40
1.0
 10
-128.3934475583049
 20
41.61482882292237
 30
0.0
 10
-128.3934581270168
 20
41.61475214225219
 30
0.0
 10
-128.3934792644219
 20
41.61459878104702
 30
0.0
 10
-128.3934373792009
 20
41.61444974388309
 30
0.0
 10
-128.3934164366089
 20
41.61437522536682
 30
0.0
  0
LINE
  5
3096
330
A
100
AcDbEntity
  8
001
  6
PHANTOM
370
     0
100
AcDbLine
 10
-128.3702642467364
 20
41.57949028026547
 30
0.0
 11
-128.3699826233269
 21
41.57953928956373
 31
0.0
  0
LINE
  5
3097
330
A
100
AcDbEntity
  8
001
  6
PHANTOM
370
     0
100
AcDbLine
 10
-128.3704362208824
 20
41.57950816786772
 30
0.0
 11
-128.3702642467364
 21
41.57949028026547
 31
0.0
  0
SPLINE
  5
3098
330
A
100
AcDbEntity
  8
001
  6
PHANTOM
370
     0
100
AcDbSpline
210
0.0
220
0.0
230
1.0
 70
     8
 71
     3
 72
     9
 73
     5
 74
     0
 42
0.0000000001
 43
0.0000000001
 40
0.0
 40
0.0
 40
0.0
 40
0.0
 40
0.4999980837253993
 40
1.0
 40
1.0
 40
1.0
 40
1.0
 10
-128.3892570366797
 20
41.59240269212901
 30
0.0
 10
-128.3892102890658
 20
41.59234099711746
 30
0.0
 10
-128.3891167934797
 20
41.59221760662147
 30
0.0
 10
-128.3889817901599
 20
41.59214183889806
 30
0.0
 10
-128.3889142882414
 20
41.59210395489115
 30
0.0
  0
SPLINE
  5
3099
330
A
100
AcDbEntity
  8
001
  6
PHANTOM
370
     0
100
AcDbSpline
210
0.0
220
0.0
230
1.0
 70
     8
 71
     3
 72
     9
 73
     5
 74
     0
 42
0.0000000001
 43
0.0000000001
 40
0.0
 40
0.0
 40
0.0
 40
0.0
 40
0.499997732909444
 40
1.0
 40
1.0
 40
1.0
 40
1.0
 10
-128.3393060874529
 20
41.62494563763568
 30
0.0
 10
-128.3393528350917
 20
41.62500733214172
 30
0.0
 10
-128.3394463307933
 20
41.62513072171328
 30
0.0
 10
-128.3395813339879
 20
41.62520648830266
 30
0.0
 10
-128.3396488358912
 20
41.62524437176912
 30
0.0
  0
SPLINE
  5
309A
330
A
100
AcDbEntity
  8
001
  6
PHANTOM
370
     0
100
AcDbSpline
210
0.0
220
0.0
230
1.0
 70
     8
 71
     3
 72
     9
 73
     5
 74
     0
 42
0.0000000001
 43
0.0000000001
 40
0.0
 40
0.0
 40
0.0
 40
0.0
 40
0.5000004408304672
 40
1.0
 40
1.0
 40
1.0
 40
1.0
 10
-128.3581269032502
 20
41.63784016034483
 30
0.0
 10
-128.3582035839204
 20
41.6378507290567
 30
0.0
 10
-128.3583569451255
 20
41.63787186646179
 30
0.0
 10
-128.3585059822895
 20
41.63782998124082
 30
0.0
 10
-128.3585805008057
 20
41.63780903864879
 30
0.0
  0
LINE
  5
309B
330
A
100
AcDbEntity
  8
001
  6
PHANTOM
370
     0
100
AcDbLine
 10
-128.3350976782254
 20
41.60269147943623
 30
0.0
 11
-128.3351466875237
 21
41.60297310284573
 31
0.0
  0
LINE
  5
309C
330
A
100
AcDbEntity
  8
001
  6
PHANTOM
370
     0
100
AcDbLine
 10
-128.3351155658277
 20
41.60251950529022
 30
0.0
 11
-128.3350976782254
 21
41.60269147943623
 31
0.0
  0
LINE
  5
309D
330
A
100
AcDbEntity
  8
001
  6
PHANTOM
370
     0
100
AcDbLine
 10
-128.3805530355957
 20
41.58369868949272
 30
0.0
 11
-128.3807046983727
 21
41.58356877309798
 31
0.0
  0
LINE
  5
309E
330
A
100
AcDbEntity
  8
001
  6
PHANTOM
370
     0
100
AcDbLine
 10
-128.3808517697292
 20
41.58404143793123
 30
0.0
 11
-128.3810032679724
 21
41.58391305356198
 31
0.0
  0
LINE
  5
309F
330
A
100
AcDbEntity
  8
001
  6
PHANTOM
370
     0
100
AcDbLine
 10
-128.3704208435826
 20
41.57930906041448
 30
0.0
 11
-128.3704362208824
 21
41.57950816786772
 31
0.0
  0
LINE
  5
30A0
330
A
100
AcDbEntity
  8
001
  6
PHANTOM
370
     0
100
AcDbLine
 10
-128.3892570366797
 20
41.62494563763572
 30
0.0
 11
-128.3893869530744
 21
41.62509730041247
 31
0.0
  0
LINE
  5
30A1
330
A
100
AcDbEntity
  8
001
  6
PHANTOM
370
     0
100
AcDbLine
 10
-128.3936466657582
 20
41.61481344562248
 30
0.0
 11
-128.3934475583049
 21
41.61482882292247
 31
0.0
  0
LINE
  5
30A2
330
A
100
AcDbEntity
  8
001
  6
PHANTOM
370
     0
100
AcDbLine
 10
-128.3934475583049
 20
41.60251950529022
 30
0.0
 11
-128.3936466657582
 21
41.60253488297797
 31
0.0
  0
LINE
  5
30A3
330
A
100
AcDbEntity
  8
001
  6
PHANTOM
370
     0
100
AcDbLine
 10
-128.3893869530744
 20
41.59225102935223
 30
0.0
 11
-128.3892570366797
 21
41.59240269212897
 31
0.0
  0
LINE
  5
30A4
330
A
100
AcDbEntity
  8
001
  6
PHANTOM
370
     0
100
AcDbLine
 10
-128.3934164366089
 20
41.60297310284573
 30
0.0
 11
-128.3936143550737
 21
41.60298941418448
 31
0.0
  0
LINE
  5
30A5
330
A
100
AcDbEntity
  8
001
  6
PHANTOM
370
     0
100
AcDbLine
 10
-128.3581269032502
 20
41.57950816786772
 30
0.0
 11
-128.3581422809382
 21
41.57930906041448
 31
0.0
  0
LINE
  5
30A6
330
A
100
AcDbEntity
  8
001
  6
PHANTOM
370
     0
100
AcDbLine
 10
-128.3585805008057
 20
41.57953928956373
 30
0.0
 11
-128.3585968121444
 21
41.57934137109897
 31
0.0
  0
LINE
  5
30A7
330
A
100
AcDbEntity
  8
001
  6
PHANTOM
370
     0
100
AcDbLine
 10
-128.3478584273122
 20
41.58356877309798
 30
0.0
 11
-128.3480100885369
 21
41.58369868949272
 31
0.0
  0
LINE
  5
30A8
330
A
100
AcDbEntity
  8
001
  6
PHANTOM
370
     0
100
AcDbLine
 10
-128.3704362208824
 20
41.63784016034473
 30
0.0
 11
-128.3704208431944
 21
41.63803926779798
 31
0.0
  0
LINE
  5
30A9
330
A
100
AcDbEntity
  8
001
  6
PHANTOM
370
     0
100
AcDbLine
 10
-128.3699826233269
 20
41.63780903864872
 30
0.0
 11
-128.3699663119882
 21
41.63800695711347
 31
0.0
  0
LINE
  5
30AA
330
A
100
AcDbEntity
  8
001
  6
PHANTOM
370
     0
100
AcDbLine
 10
-128.3807046968204
 20
41.63377955511448
 30
0.0
 11
-128.3805530340434
 21
41.63364963871972
 31
0.0
  0
LINE
  5
30AB
330
A
100
AcDbEntity
  8
001
  6
PHANTOM
370
     0
100
AcDbLine
 10
-128.3480100885369
 20
41.63364963871972
 30
0.0
 11
-128.3478583962682
 21
41.63377953338347
 31
0.0
  0
LINE
  5
30AC
330
A
100
AcDbEntity
  8
001
  6
PHANTOM
370
     0
100
AcDbLine
 10
-128.3581423170269
 20
41.63803927400698
 30
0.0
 11
-128.3581269032502
 21
41.63784016034473
 31
0.0
  0
LINE
  5
30AD
330
A
100
AcDbEntity
  8
001
  6
PHANTOM
370
     0
100
AcDbLine
 10
-128.3477113528512
 20
41.63330689028122
 30
0.0
 11
-128.3475598716822
 21
41.63343530569448
 31
0.0
  0
LINE
  5
30AE
330
A
100
AcDbEntity
  8
001
  6
PHANTOM
370
     0
100
AcDbLine
 10
-128.3351155658277
 20
41.61482882292247
 30
0.0
 11
-128.3349164583744
 21
41.61481344523447
 31
0.0
  0
LINE
  5
30AF
330
A
100
AcDbEntity
  8
001
  6
PHANTOM
370
     0
100
AcDbLine
 10
-128.3391761710582
 20
41.62509729886022
 30
0.0
 11
-128.3393060874529
 21
41.62494563763572
 31
0.0
  0
LINE
  5
30B0
330
A
100
AcDbEntity
  8
001
  6
PHANTOM
370
     0
100
AcDbLine
 10
-128.3351466875237
 20
41.61437522536672
 30
0.0
 11
-128.3349487814767
 21
41.61435888181972
 31
0.0
  0
LINE
  5
30B1
330
A
100
AcDbEntity
  8
001
  6
PHANTOM
370
     0
100
AcDbLine
 10
-128.3393060874529
 20
41.59240269057672
 30
0.0
 11
-128.3391761927889
 21
41.59225099830798
 31
0.0
  0
LINE
  5
30B2
330
A
100
AcDbEntity
  8
001
  6
PHANTOM
370
     0
100
AcDbLine
 10
-128.3349164521657
 20
41.60253491906672
 30
0.0
 11
-128.3351155658277
 21
41.60251950529022
 31
0.0
  0
LINE
  5
30B3
330
A
100
AcDbEntity
  8
001
  6
PHANTOM
370
     0
100
AcDbLine
 10
-128.3396488358912
 20
41.59210395644348
 30
0.0
 11
-128.3395204204779
 21
41.59195247372223
 31
0.0
  0
LINE
  5
30B4
330
A
100
AcDbEntity
  8
001
  6
PHANTOM
370
     0
100
AcDbLine
 10
-128.3699663119882
 20
41.57934137109897
 30
0.0
 11
-128.3699826233269
 21
41.57953928956373
 31
0.0
  0
LINE
  5
30B5
330
A
100
AcDbEntity
  8
001
  6
PHANTOM
370
     0
100
AcDbLine
 10
-128.3475598716822
 20
41.58391302251797
 30
0.0
 11
-128.3477113528512
 21
41.58404143793123
 31
0.0
  0
LINE
  5
30B6
330
A
100
AcDbEntity
  8
001
  6
PHANTOM
370
     0
100
AcDbLine
 10
-128.3936143426559
 20
41.61435888143173
 30
0.0
 11
-128.3934164366089
 21
41.61437522536672
 31
0.0
  0
LINE
  5
30B7
330
A
100
AcDbEntity
  8
001
  6
PHANTOM
370
     0
100
AcDbLine
 10
-128.3890426726104
 20
41.59195245820022
 30
0.0
 11
-128.3889142882414
 21
41.59210395489123
 31
0.0
  0
LINE
  5
30B8
330
A
100
AcDbEntity
  8
001
  6
PHANTOM
370
     0
100
AcDbLine
 10
-128.3585968447409
 20
41.63800694469598
 30
0.0
 11
-128.3585805008057
 21
41.63780903864872
 31
0.0
  0
LINE
  5
30B9
330
A
100
AcDbEntity
  8
001
  6
PHANTOM
370
     0
100
AcDbLine
 10
-128.3810032524504
 20
41.63343530569448
 30
0.0
 11
-128.3808517712814
 21
41.63330689028122
 31
0.0
  0
LINE
  5
30BA
330
A
100
AcDbEntity
  8
001
  6
PHANTOM
370
     0
100
AcDbLine
 10
-128.3889142882414
 20
41.62524437176922
 30
0.0
 11
-128.3890427036547
 21
41.62539585449023
 31
0.0
  0
LINE
  5
30BB
330
A
100
AcDbEntity
  8
001
  6
PHANTOM
370
     0
100
AcDbLine
 10
-128.3349487690589
 20
41.60298941418448
 30
0.0
 11
-128.3351466875237
 21
41.60297310284573
 31
0.0
  0
LINE
  5
30BC
330
A
100
AcDbEntity
  8
001
  6
PHANTOM
370
     0
100
AcDbLine
 10
-128.3395204515222
 20
41.62539587001222
 30
0.0
 11
-128.3396488358912
 21
41.62524437176922
 31
0.0
  0
LINE
  5
30BD
330
A
100
AcDbEntity
  8
001
  6
CENTERX2
370
     0
100
AcDbLine
 10
-128.3642815620664
 20
41.60867416410622
 30
0.0
 11
-128.4277904551739
 21
41.54516527099848
 31
0.0
  0
LINE
  5
30CA
330
A
100
AcDbEntity
  8
001
  6
CENTERX2
 48
0.6666666667
370
     0
100
AcDbLine
 10
-128.3642815620664
 20
41.58396283924072
 30
0.0
 11
-128.3642815620664
 21
41.57867416410622
 31
0.0
  0
LINE
  5
30CB
330
A
100
AcDbEntity
  8
001
  6
CENTERX2
 48
0.6666666667
370
     0
100
AcDbLine
 10
-128.3642815620664
 20
41.58396283924072
 30
0.0
 11
-128.3642815620664
 21
41.59242416410623
 31
0.0
  0
LINE
  5
30CC
330
A
100
AcDbEntity
  8
001
  6
CENTERX2
 48
0.6666666667
370
     0
100
AcDbLine
 10
-128.3960366978504
 20
41.60867416410622
 30
0.0
 11
-128.3267368372762
 21
41.60867416410622
 31
0.0
  0
LINE
  5
30CD
330
A
100
AcDbEntity
  8
001
  6
CENTERX2
 48
0.6666666667
370
     0
100
AcDbLine
 10
-128.3437748260242
 20
41.65391497425822
 30
0.0
 11
-128.3552950341507
 21
41.65391497425822
 31
0.0
  0
LINE
  5
30CE
330
A
100
AcDbEntity
  8
001
  6
CENTERX2
 48
0.6666666667
370
     0
100
AcDbLine
 10
-128.4253786639119
 20
41.57077631658572
 30
0.0
 11
-128.4021269154942
 21
41.54752456816797
 31
0.0
  0
LINE
  5
30CF
330
A
100
AcDbEntity
  8
001
  6
Continuous
370
    15
100
AcDbLine
 10
-127.8274082501108
 20
41.70867416187098
 30
0.0
 11
-127.8307415836025
 21
41.70867416187098
 31
0.0
  0
LINE
  5
30D0
330
A
100
AcDbEntity
  8
001
  6
Continuous
370
    15
100
AcDbLine
 10
-127.8307415836025
 20
41.50867416634148
 30
0.0
 11
-127.8274082501108
 21
41.50867416634148
 31
0.0
  0
ARC
  5
30D1
330
A
100
AcDbEntity
  8
001
  6
Continuous
370
    15
100
AcDbCircle
 10
-127.8390749167775
 20
41.56413427348923
 30
0.0
 40
0.0083333333333334
100
AcDbArc
 50
0.0
 51
38.04704253179998
  0
ARC
  5
30D2
330
A
100
AcDbEntity
  8
001
  6
Continuous
370
    15
100
AcDbCircle
 10
-127.8390749167775
 20
41.65321405472347
 30
0.0
 40
0.0083333333333334
100
AcDbArc
 50
321.9529574682
 51
0.0
  0
LINE
  5
30D3
330
A
100
AcDbEntity
  8
001
  6
Continuous
370
    15
100
AcDbLine
 10
-127.8325123751225
 20
41.64807815215472
 30
0.0
 11
-127.8447406490645
 21
41.63245313601172
 31
0.0
  0
LINE
  5
30D4
330
A
100
AcDbEntity
  8
001
  6
Continuous
370
    15
100
AcDbLine
 10
-127.8447406490645
 20
41.58489519220072
 30
0.0
 11
-127.8325123751225
 21
41.56927017605773
 31
0.0
  0
ARC
  5
30D5
330
A
100
AcDbEntity
  8
001
  6
Continuous
370
    15
100
AcDbCircle
 10
-127.8473656651445
 20
41.58284083077298
 30
0.0
 40
0.0033333333333333
100
AcDbArc
 50
38.04704253209999
 51
90.0
  0
ARC
  5
30D6
330
A
100
AcDbEntity
  8
001
  6
Continuous
370
    15
100
AcDbCircle
 10
-127.8473656651445
 20
41.63450749743947
 30
0.0
 40
0.0033333333333333
100
AcDbArc
 50
270.0
 51
321.9529574679
  0
LINE
  5
30D7
330
A
100
AcDbEntity
  8
001
  6
Continuous
370
    15
100
AcDbLine
 10
-127.862408249639
 20
41.58617416352273
 30
0.0
 11
-127.84736566556
 21
41.58617416352273
 31
0.0
  0
LINE
  5
30D8
330
A
100
AcDbEntity
  8
001
  6
Continuous
370
    15
100
AcDbLine
 10
-127.84736566556
 20
41.63117416468998
 30
0.0
 11
-127.862408249639
 21
41.63117416468998
 31
0.0
  0
LINE
  5
30D9
330
A
100
AcDbEntity
  8
001
  6
Continuous
370
    15
100
AcDbLine
 10
-127.834151564166
 20
41.55084814055747
 30
0.0
 11
-127.8307415836025
 21
41.54882443869097
 31
0.0
  0
SPLINE
  5
30DA
330
A
100
AcDbEntity
  8
001
  6
Continuous
370
    15
100
AcDbSpline
210
0.0
220
0.0
230
1.0
 70
     8
 71
     3
 72
    11
 73
     7
 74
     0
 42
0.0000000001
 43
0.0000000001
 40
0.0
 40
0.0
 40
0.0
 40
0.0
 40
0.180177303979014
 40
0.4563459612659684
 40
0.7300061733254834
 40
1.0
 40
1.0
 40
1.0
 40
1.0
 10
-127.835270256425
 20
41.55215239573498
 30
0.0
 10
-127.8352374448094
 20
41.55205856539903
 30
0.0
 10
-127.8351543408452
 20
41.55182091562902
 30
0.0
 10
-127.8349099775686
 20
41.55147339302867
 30
0.0
 10
-127.8345691157559
 20
41.55111923450656
 30
0.0
 10
-127.8342821375102
 20
41.55093403244766
 30
0.0
 10
-127.8341396160734
 20
41.55084205591658
 30
0.0
  0
LINE
  5
30DB
330
A
100
AcDbEntity
  8
001
  6
Continuous
370
    15
100
AcDbLine
 10
-127.8353292564863
 20
41.55230263669273
 30
0.0
 11
-127.835270256425
 21
41.55215239573498
 31
0.0
  0
SPLINE
  5
30DC
330
A
100
AcDbEntity
  8
001
  6
Continuous
370
    15
100
AcDbSpline
210
0.0
220
0.0
230
1.0
 70
     8
 71
     3
 72
    11
 73
     7
 74
     0
 42
0.0000000001
 43
0.0000000001
 40
0.0
 40
0.0
 40
0.0
 40
0.0
 40
0.2474947329100421
 40
0.4967968745311618
 40
0.7477027624625943
 40
1.0
 40
1.0
 40
1.0
 40
1.0
 10
-127.8341396160734
 20
41.5675113206007
 30
0.0
 10
-127.83431565699
 20
41.56739374782181
 30
0.0
 10
-127.8346690244178
 20
41.56715774365156
 30
0.0
 10
-127.8350498287234
 20
41.56670643135319
 30
0.0
 10
-127.8353092554671
 20
41.56620743855138
 30
0.0
 10
-127.83534984086
 20
41.56585343964132
 30
0.0
 10
-127.8353701896655
 20
41.56567595078527
 30
0.0
  0
LINE
  5
30DD
330
A
100
AcDbEntity
  8
001
  6
Continuous
370
    15
100
AcDbLine
 10
-127.8321133813975
 20
41.56871482530223
 30
0.0
 11
-127.834151564166
 21
41.56750523906422
 31
0.0
  0
LINE
  5
30DE
330
A
100
AcDbEntity
  8
001
  6
Continuous
370
    15
100
AcDbLine
 10
-127.9557415827488
 20
41.58396283896247
 30
0.0
 11
-127.9552415867025
 21
41.58367416466497
 31
0.0
  0
LINE
  5
30DF
330
A
100
AcDbEntity
  8
001
  6
Continuous
370
    15
100
AcDbLine
 10
-127.9512415810798
 20
41.58367416466497
 30
0.0
 11
-127.9507415850338
 21
41.58396283896247
 31
0.0
  0
LINE
  5
30E0
330
A
100
AcDbEntity
  8
001
  6
Continuous
370
    15
100
AcDbLine
 10
-127.9557415827488
 20
41.58467416451848
 30
0.0
 11
-127.9557415827488
 21
41.58396283896247
 31
0.0
  0
LINE
  5
30E1
330
A
100
AcDbEntity
  8
001
  6
Continuous
370
    15
100
AcDbLine
 10
-127.9507415850338
 20
41.58396283896247
 30
0.0
 11
-127.9507415850338
 21
41.58467416451848
 31
0.0
  0
LINE
  5
30E2
330
A
100
AcDbEntity
  8
001
  6
Continuous
370
    15
100
AcDbLine
 10
-128.029908250707
 20
41.60200749712298
 30
0.0
 11
-128.0122697089488
 21
41.60359887788622
 31
0.0
  0
LINE
  5
30E3
330
A
100
AcDbEntity
  8
001
  6
Continuous
370
    15
100
AcDbLine
 10
-128.0122697089488
 20
41.61374945032648
 30
0.0
 11
-128.029908250707
 21
41.61534083108947
 31
0.0
  0
ARC
  5
30E4
330
A
100
AcDbEntity
  8
001
  6
Continuous
370
    15
100
AcDbCircle
 10
-128.0121648717225
 20
41.61491139743023
 30
0.0
 40
0.0011666666666667
100
AcDbArc
 50
264.8446322808999
 51
334.5226648174999
  0
ARC
  5
30E5
330
A
100
AcDbEntity
  8
001
  6
Continuous
370
    15
100
AcDbCircle
 10
-128.0121648717225
 20
41.60243693078222
 30
0.0
 40
0.0011666666666667
100
AcDbArc
 50
25.47733518250001
 51
95.15536771909998
  0
LINE
  5
30E6
330
A
100
AcDbEntity
  8
001
  6
Continuous
370
    15
100
AcDbLine
 10
-128.04490825627
 20
41.61394083090672
 30
0.0
 11
-128.0520749200758
 21
41.61394083090672
 31
0.0
  0
LINE
  5
30E7
330
A
100
AcDbEntity
  8
001
  6
Continuous
370
    15
100
AcDbLine
 10
-128.0520749200758
 20
41.60340749730572
 30
0.0
 11
-128.04490825627
 21
41.60340749730572
 31
0.0
  0
LINE
  5
30E8
330
A
100
AcDbEntity
  8
001
  6
Continuous
370
    15
100
AcDbLine
 10
-128.0520749200758
 20
41.61394083090672
 30
0.0
 11
-128.053241581656
 21
41.61277416428148
 31
0.0
  0
LINE
  5
30E9
330
A
100
AcDbEntity
  8
001
  6
Continuous
370
    15
100
AcDbLine
 10
-128.053241581656
 20
41.60457416393097
 30
0.0
 11
-128.0520749200758
 21
41.60340749730572
 31
0.0
  0
LINE
  5
30EA
330
A
100
AcDbEntity
  8
001
  6
Continuous
370
    15
100
AcDbLine
 10
-127.989074921546
 20
41.62692022154947
 30
0.0
 11
-128.0099518829958
 21
41.62655581365248
 31
0.0
  0
LINE
  5
30EB
330
A
100
AcDbEntity
  8
001
  6
Continuous
370
    15
100
AcDbLine
 10
-128.0099518829958
 20
41.59079251455998
 30
0.0
 11
-127.989074921546
 21
41.59042810666297
 31
0.0
  0
ARC
  5
30EC
330
A
100
AcDbEntity
  8
001
  6
Continuous
370
    15
100
AcDbCircle
 10
-128.0099082501108
 20
41.59329213410372
 30
0.0
 40
0.0025
100
AcDbArc
 50
180.0
 51
268.9999999997999
  0
ARC
  5
30ED
330
A
100
AcDbEntity
  8
001
  6
Continuous
370
    15
100
AcDbCircle
 10
-128.0099082501108
 20
41.62405619410872
 30
0.0
 40
0.0025
100
AcDbArc
 50
91.00000000020001
 51
180.0
  0
LINE
  5
30EE
330
A
100
AcDbEntity
  8
001
  6
Continuous
370
    15
100
AcDbLine
 10
-128.0435749252018
 20
41.63367416354748
 30
0.0
 11
-128.04490825627
 21
41.63367416354748
 31
0.0
  0
LINE
  5
30EF
330
A
100
AcDbEntity
  8
001
  6
Continuous
370
    15
100
AcDbLine
 10
-128.04490825627
 20
41.58367416466497
 30
0.0
 11
-128.0435749252018
 21
41.58367416466497
 31
0.0
  0
LINE
  5
30F0
330
A
100
AcDbEntity
  8
001
  6
Continuous
370
    15
100
AcDbLine
 10
-127.979074913698
 20
41.63734083174648
 30
0.0
 11
-127.9789829983688
 21
41.63558693713422
 31
0.0
  0
LINE
  5
30F1
330
A
100
AcDbEntity
  8
001
  6
Continuous
370
    15
100
AcDbLine
 10
-127.955833498078
 20
41.63558693713422
 30
0.0
 11
-127.9557415827488
 21
41.63734083174648
 31
0.0
  0
LINE
  5
30F2
330
A
100
AcDbEntity
  8
001
  6
Continuous
370
    15
100
AcDbLine
 10
-127.9778824110205
 20
41.65097129641948
 30
0.0
 11
-127.979074913698
 21
41.63734083174648
 31
0.0
  0
ARC
  5
30F3
330
A
100
AcDbEntity
  8
001
  6
Continuous
370
    15
100
AcDbCircle
 10
-127.957497883653
 20
41.63567416410622
 30
0.0
 40
0.0016666666666667
100
AcDbArc
 50
270.0
 51
357.0
  0
ARC
  5
30F4
330
A
100
AcDbEntity
  8
001
  6
Continuous
370
    15
100
AcDbCircle
 10
-127.9773186165688
 20
41.63567416410622
 30
0.0
 40
0.0016666666666667
100
AcDbArc
 50
183.0
 51
270.0
  0
SPLINE
  5
30F5
330
A
100
AcDbEntity
  8
001
  6
Continuous
370
    15
100
AcDbSpline
210
0.0
220
0.0
230
1.0
 70
     8
 71
     3
 72
    15
 73
    11
 74
     0
 42
0.0000000001
 43
0.0000000001
 40
0.0
 40
0.0
 40
0.0
 40
0.0
 40
0.1087916468191339
 40
0.23433335856713
 40
0.3603735127231633
 40
0.4869009702459035
 40
0.6143073080764933
 40
0.7423447052474345
 40
0.8709104056425996
 40
1.0
 40
1.0
 40
1.0
 40
1.0
 10
-127.9656572500244
 20
41.65304053064663
 30
0.0
 10
-127.9662413235758
 20
41.65300714832659
 30
0.0
 10
-127.9674993973431
 20
41.65293524399016
 30
0.0
 10
-127.9694753955923
 20
41.65282166543983
 30
0.0
 10
-127.9714501912456
 20
41.65270727156591
 30
0.0
 10
-127.973251590486
 20
41.65260153625595
 30
0.0
 10
-127.9747684748999
 20
41.65251048424933
 30
0.0
 10
-127.9759249367155
 20
41.65243807111013
 30
0.0
 10
-127.9766883777657
 20
41.65238604467289
 30
0.0
 10
-127.9768046212381
 20
41.652371698967
 30
0.0
 10
-127.976862861154
 20
41.6523645115294
 30
0.0
  0
SPLINE
  5
30F6
330
A
100
AcDbEntity
  8
001
  6
Continuous
370
    15
100
AcDbSpline
210
0.0
220
0.0
230
1.0
 70
     8
 71
     3
 72
    11
 73
     7
 74
     0
 42
0.0000000001
 43
0.0000000001
 40
0.0
 40
0.0
 40
0.0
 40
0.0
 40
0.2546805212073727
 40
0.5125113565001111
 40
0.7638123346909414
 40
1.0
 40
1.0
 40
1.0
 40
1.0
 10
-127.976862861154
 20
41.6523645115294
 30
0.0
 10
-127.9770015315489
 20
41.6522930808239
 30
0.0
 10
-127.9772805876458
 20
41.65214933583864
 30
0.0
 10
-127.9775980989465
 20
41.65179924036456
 30
0.0
 10
-127.9778162172747
 20
41.65139364382976
 30
0.0
 10
-127.9778616604534
 20
41.65109882071459
 30
0.0
 10
-127.9778836776192
 20
41.65095597926755
 30
0.0
  0
SPLINE
  5
30F7
330
A
100
AcDbEntity
  8
001
  6
Continuous
370
    15
100
AcDbSpline
210
0.0
220
0.0
230
1.0
 70
     8
 71
     3
 72
     9
 73
     5
 74
     0
 42
0.0000000001
 43
0.0000000001
 40
0.0
 40
0.0
 40
0.0
 40
0.0
 40
0.2644660073007485
 40
1.0
 40
1.0
 40
1.0
 40
1.0
 10
-127.917426264224
 20
41.65392682998358
 30
0.0
 10
-127.9174245942283
 20
41.65394434257573
 30
0.0
 10
-127.9174182796334
 20
41.65401056126421
 30
0.0
 10
-127.9174185265085
 20
41.65406951841224
 30
0.0
 10
-127.9174187080935
 20
41.65411288339872
 30
0.0
  0
SPLINE
  5
30F8
330
A
100
AcDbEntity
  8
001
  6
Continuous
370
    15
100
AcDbSpline
210
0.0
220
0.0
230
1.0
 70
     8
 71
     3
 72
     9
 73
     5
 74
     0
 42
0.0000000001
 43
0.0000000001
 40
0.0
 40
0.0
 40
0.0
 40
0.0
 40
0.2700084547309217
 40
1.0
 40
1.0
 40
1.0
 40
1.0
 10
-127.9174219242608
 20
41.65392667165875
 30
0.0
 10
-127.9174208762013
 20
41.65395097299567
 30
0.0
 10
-127.9174169946208
 20
41.65404097512891
 30
0.0
 10
-127.9174229413835
 20
41.65411909584425
 30
0.0
 10
-127.91742728247
 20
41.65417612330595
 30
0.0
  0
LINE
  5
30F9
330
A
100
AcDbEntity
  8
001
  6
Continuous
370
    15
100
AcDbLine
 10
-127.9731582462168
 20
41.63400749786672
 30
0.0
 11
-127.9731582462168
 21
41.63267416369397
 31
0.0
  0
LINE
  5
30FA
330
A
100
AcDbEntity
  8
001
  6
Continuous
370
    15
100
AcDbLine
 10
-127.96165825023
 20
41.63267416369397
 30
0.0
 11
-127.96165825023
 21
41.63400749786672
 31
0.0
  0
ARC
  5
30FC
330
A
100
AcDbEntity
  8
001
  6
Continuous
370
    15
100
AcDbCircle
 10
-128.0269082501108
 20
41.62644876663272
 30
0.0
 40
0.0083333333333334
100
AcDbArc
 50
180.0
 51
248.8998039759
  0
ARC
  5
30FD
330
A
100
AcDbEntity
  8
001
  6
Continuous
370
    15
100
AcDbCircle
 10
-128.0269082501108
 20
41.59089956157973
 30
0.0
 40
0.0083333333333334
100
AcDbArc
 50
111.1001960240999
 51
180.0
  0
ARC
  5
30FE
330
A
100
AcDbEntity
  8
001
  6
Continuous
370
    15
100
AcDbCircle
 10
-128.0360749167775
 20
41.58012530815698
 30
0.0
 40
0.0008333333333342
100
AcDbArc
 50
272.073911773
 51
359.9252564592
  0
ARC
  5
30FF
330
A
100
AcDbEntity
  8
001
  6
Continuous
370
    15
100
AcDbCircle
 10
-128.0360749167775
 20
41.63722302005573
 30
0.0
 40
0.0008333333333334
100
AcDbArc
 50
0.6831476337999981
 51
87.92608788069999
  0
LINE
  5
3100
330
A
100
AcDbEntity
  8
001
  6
Continuous
370
    15
100
AcDbLine
 10
-128.0360370238
 20
41.63805749067647
 30
0.0
 11
-128.0415654042735
 21
41.63785732151548
 31
0.0
  0
LINE
  5
3101
330
A
100
AcDbEntity
  8
001
  6
Continuous
370
    15
100
AcDbLine
 10
-128.0415654042735
 20
41.57949098186172
 30
0.0
 11
-128.0360715448235
 21
41.57929206377747
 31
0.0
  0
LINE
  5
3102
330
A
100
AcDbEntity
  8
001
  6
Continuous
370
    15
100
AcDbLine
 10
-128.036064466772
 20
41.57929180611147
 30
0.0
 11
-128.0360370238
 21
41.57929081270072
 31
0.0
  0
LINE
  5
3103
330
A
100
AcDbEntity
  8
001
  6
Continuous
370
    15
100
AcDbLine
 10
-128.036071495153
 20
41.57929155154998
 30
0.0
 11
-128.0360447475688
 21
41.57929252012547
 31
0.0
  0
LINE
  5
3104
330
A
100
AcDbEntity
  8
001
  6
Continuous
370
    15
100
AcDbLine
 10
-128.0360447475688
 20
41.63805580808698
 30
0.0
 11
-128.036072414058
 21
41.63805680770647
 31
0.0
  0
LINE
  5
3105
330
A
100
AcDbEntity
  8
001
  6
Continuous
370
    15
100
AcDbLine
 10
-128.041565354603
 20
41.57949097875722
 30
0.0
 11
-128.0360715448235
 21
41.57929206377747
 31
0.0
  0
LINE
  5
3106
330
A
100
AcDbEntity
  8
001
  6
Continuous
370
    15
100
AcDbLine
 10
-128.036064466772
 20
41.57929180611147
 30
0.0
 11
-128.0360370238
 21
41.57929081270072
 31
0.0
  0
LINE
  5
3107
330
A
100
AcDbEntity
  8
001
  6
Continuous
370
    15
100
AcDbLine
 10
-128.0360370238
 20
41.63805751551172
 30
0.0
 11
-128.0415654042735
 21
41.63785734635072
 31
0.0
  0
LINE
  5
3108
330
A
100
AcDbEntity
  8
001
  6
Continuous
370
    15
100
AcDbLine
 10
-128.036072414058
 20
41.57929152050598
 30
0.0
 11
-128.036071495153
 21
41.57929155154998
 31
0.0
  0
ARC
  5
3109
330
A
100
AcDbEntity
  8
001
  6
Continuous
370
    15
100
AcDbCircle
 10
-127.9857415834443
 20
41.58800749743948
 30
0.0
 40
0.0033333333333334
100
AcDbArc
 50
180.0
 51
270.0
  0
ARC
  5
310A
330
A
100
AcDbEntity
  8
001
  6
Continuous
370
    15
100
AcDbCircle
 10
-127.9857415834443
 20
41.62934083077297
 30
0.0
 40
0.0033333333333334
100
AcDbArc
 50
90.0
 51
180.0
  0
LINE
  5
310B
330
A
100
AcDbEntity
  8
001
  6
Continuous
370
    15
100
AcDbLine
 10
-127.9482415799673
 20
41.58467416451848
 30
0.0
 11
-127.947408244945
 21
41.58550749798847
 31
0.0
  0
LINE
  5
310C
330
A
100
AcDbEntity
  8
001
  6
Continuous
370
    15
100
AcDbLine
 10
-127.947408244945
 20
41.63184083022398
 30
0.0
 11
-127.9482415799673
 21
41.63267416369397
 31
0.0
  0
LINE
  5
310D
330
A
100
AcDbEntity
  8
001
  6
Continuous
370
    15
100
AcDbLine
 10
-127.9731722036378
 20
41.63267416369397
 30
0.0
 11
-127.9857415814573
 21
41.63267416369397
 31
0.0
  0
LINE
  5
310E
330
A
100
AcDbEntity
  8
001
  6
Continuous
370
    15
100
AcDbLine
 10
-127.9482415799673
 20
41.63267416369397
 30
0.0
 11
-127.961644292809
 21
41.63267416369397
 31
0.0
  0
LINE
  5
310F
330
A
100
AcDbEntity
  8
001
  6
Continuous
370
    15
100
AcDbLine
 10
-127.9507415850338
 20
41.58467416451848
 30
0.0
 11
-127.9482415799673
 21
41.58467416451848
 31
0.0
  0
LINE
  5
3110
330
A
100
AcDbEntity
  8
001
  6
Continuous
370
    15
100
AcDbLine
 10
-127.9641990348075
 20
41.58467416451848
 30
0.0
 11
-127.9557415827488
 21
41.58467416451848
 31
0.0
  0
LINE
  5
3111
330
A
100
AcDbEntity
  8
001
  6
Continuous
370
    15
100
AcDbLine
 10
-127.9857415814573
 20
41.58467416451848
 30
0.0
 11
-127.9706174740568
 21
41.58467416451848
 31
0.0
  0
LINE
  5
3112
330
A
100
AcDbEntity
  8
001
  6
Continuous
370
    15
100
AcDbLine
 10
-127.947408244945
 20
41.58784083046247
 30
0.0
 11
-127.862408249639
 21
41.58784083046247
 31
0.0
  0
LINE
  5
3113
330
A
100
AcDbEntity
  8
001
  6
Continuous
370
    15
100
AcDbLine
 10
-127.862408249639
 20
41.62950749774998
 30
0.0
 11
-127.947408244945
 21
41.62950749774998
 31
0.0
  0
LINE
  5
3114
330
A
100
AcDbEntity
  8
001
  6
Continuous
370
    15
100
AcDbLine
 10
-127.8307415836025
 20
41.50867416634148
 30
0.0
 11
-127.8307415836025
 21
41.70867416187098
 31
0.0
  0
LINE
  5
3115
330
A
100
AcDbEntity
  8
001
  6
Continuous
370
    15
100
AcDbLine
 10
-127.8274082501108
 20
41.50867416634148
 30
0.0
 11
-127.8274082501108
 21
41.70867416187098
 31
0.0
  0
LINE
  5
3116
330
A
100
AcDbEntity
  8
001
  6
Continuous
370
    15
100
AcDbLine
 10
-127.862408249639
 20
41.63117416468998
 30
0.0
 11
-127.862408249639
 21
41.58617416352273
 31
0.0
  0
LINE
  5
3117
330
A
100
AcDbEntity
  8
001
  6
Continuous
370
    15
100
AcDbLine
 10
-127.8310799214523
 20
41.56648469889147
 30
0.0
 11
-127.832074916611
 21
41.56589420312623
 31
0.0
  0
LINE
  5
3118
330
A
100
AcDbEntity
  8
001
  6
Continuous
370
    15
100
AcDbLine
 10
-127.832074916611
 20
41.56589420312623
 30
0.0
 11
-127.832074916611
 21
41.55717322092722
 31
0.0
  0
LINE
  5
3119
330
A
100
AcDbEntity
  8
001
  6
Continuous
370
    15
100
AcDbLine
 10
-127.832074916611
 20
41.55717322092722
 30
0.0
 11
-127.8307415836025
 21
41.55638193511947
 31
0.0
  0
LINE
  5
311A
330
A
100
AcDbEntity
  8
001
  6
Continuous
370
    15
100
AcDbLine
 10
-127.8354082504908
 20
41.55681966604272
 30
0.0
 11
-127.8354082504908
 21
41.55281272827572
 31
0.0
  0
ARC
  5
311B
330
A
100
AcDbEntity
  8
001
  6
Continuous
370
    15
100
AcDbCircle
 10
-127.8336795854968
 20
41.55281872209273
 30
0.0
 40
0.0017286753851549
100
AcDbArc
 50
180.1986614210999
 51
201.9854426852
  0
LINE
  5
311C
330
A
100
AcDbEntity
  8
001
  6
Continuous
370
    15
100
AcDbLine
 10
-127.8354082504908
 20
41.55681966604272
 30
0.0
 11
-127.8354082504908
 21
41.56554065134598
 31
0.0
  0
LINE
  5
311E
330
A
100
AcDbEntity
  8
001
  6
Continuous
370
    15
100
AcDbLine
 10
-127.8341395167323
 20
41.56751136406247
 30
0.0
 11
-127.834151564166
 21
41.56750523906422
 31
0.0
  0
LINE
  5
311F
330
A
100
AcDbEntity
  8
001
  6
Continuous
370
    15
100
AcDbLine
 10
-127.832074916611
 20
41.56118015869448
 30
0.0
 11
-127.8307415836025
 21
41.56197144450223
 31
0.0
  0
LINE
  5
3120
330
A
100
AcDbEntity
  8
001
  6
Continuous
370
    15
100
AcDbLine
 10
-127.9552415867025
 20
41.58367416466497
 30
0.0
 11
-127.9512415810798
 21
41.58367416466497
 31
0.0
  0
LINE
  5
3121
330
A
100
AcDbEntity
  8
001
  6
Continuous
370
    15
100
AcDbLine
 10
-127.9557415827488
 20
41.58396283896247
 30
0.0
 11
-127.9507415850338
 21
41.58396283896247
 31
0.0
  0
LINE
  5
3122
330
A
100
AcDbEntity
  8
001
  6
Continuous
370
    15
100
AcDbLine
 10
-127.852997505106
 20
41.60759675310847
 30
0.0
 11
-127.853241583022
 21
41.60784083073322
 31
0.0
  0
LINE
  5
3123
330
A
100
AcDbEntity
  8
001
  6
Continuous
370
    15
100
AcDbLine
 10
-127.853241583022
 20
41.60784083073322
 30
0.0
 11
-127.853241583022
 21
41.60950749747923
 31
0.0
  0
LINE
  5
3124
330
A
100
AcDbEntity
  8
001
  6
Continuous
370
    15
100
AcDbLine
 10
-127.853241583022
 20
41.60950749747923
 30
0.0
 11
-127.852997505106
 21
41.60975157510398
 31
0.0
  0
SPLINE
  5
3125
330
A
100
AcDbEntity
  8
001
  6
Continuous
370
    15
100
AcDbSpline
210
0.0
220
0.0
230
1.0
 70
     8
 71
     3
 72
    11
 73
     7
 74
     0
 42
0.0000000001
 43
0.0000000001
 40
0.0
 40
0.0
 40
0.0
 40
0.0
 40
0.385031258275106
 40
0.5000000002329594
 40
0.6149500724433721
 40
1.0
 40
1.0
 40
1.0
 40
1.0
 10
-127.85131934875
 20
41.60950749747915
 30
0.0
 10
-127.8513182794408
 20
41.60929359449756
 30
0.0
 10
-127.8513168908404
 20
41.60901582096997
 30
0.0
 10
-127.8513171361465
 20
41.60867417447852
 30
0.0
 10
-127.8513168908763
 20
41.60833251761542
 30
0.0
 10
-127.8513182794272
 20
41.60805474408724
 30
0.0
 10
-127.85131934875
 20
41.60784083073333
 30
0.0
  0
LINE
  5
3126
330
A
100
AcDbEntity
  8
001
  6
Continuous
370
    15
100
AcDbLine
 10
-127.8549082499618
 20
41.60950749747923
 30
0.0
 11
-127.853241583022
 21
41.60950749747923
 31
0.0
  0
LINE
  5
3127
330
A
100
AcDbEntity
  8
001
  6
Continuous
370
    15
100
AcDbLine
 10
-127.8551523278778
 20
41.60975157510398
 30
0.0
 11
-127.8549082499618
 21
41.60950749747923
 31
0.0
  0
SPLINE
  5
3128
330
A
100
AcDbEntity
  8
001
  6
Continuous
370
    15
100
AcDbSpline
210
0.0
220
0.0
230
1.0
 70
     8
 71
     3
 72
    11
 73
     7
 74
     0
 42
0.0000000001
 43
0.0000000001
 40
0.0
 40
0.0
 40
0.0
 40
0.0
 40
0.3850183499904657
 40
0.5000009313045151
 40
0.6149816500095341
 40
1.0
 40
1.0
 40
1.0
 40
1.0
 10
-127.853241583022
 20
41.61142973146009
 30
0.0
 10
-127.8534554788567
 20
41.61143080090046
 30
0.0
 10
-127.8537332529331
 20
41.61143218972045
 30
0.0
 10
-127.8540749170093
 20
41.61143194492487
 30
0.0
 10
-127.8544165810855
 20
41.61143218971736
 30
0.0
 10
-127.8546943541271
 20
41.61143080090137
 30
0.0
 10
-127.8549082499619
 20
41.61142973146009
 30
0.0
  0
LINE
  5
3129
330
A
100
AcDbEntity
  8
001
  6
Continuous
370
    15
100
AcDbLine
 10
-127.8549082499618
 20
41.60784083073322
 30
0.0
 11
-127.8551523278778
 21
41.60759675310847
 31
0.0
  0
LINE
  5
312A
330
A
100
AcDbEntity
  8
001
  6
Continuous
370
    15
100
AcDbLine
 10
-127.853241583022
 20
41.60784083073322
 30
0.0
 11
-127.8549082499618
 21
41.60784083073322
 31
0.0
  0
SPLINE
  5
312B
330
A
100
AcDbEntity
  8
001
  6
Continuous
370
    15
100
AcDbSpline
210
0.0
220
0.0
230
1.0
 70
     8
 71
     3
 72
    11
 73
     7
 74
     0
 42
0.0000000001
 43
0.0000000001
 40
0.0
 40
0.0
 40
0.0
 40
0.0
 40
0.3850071744183462
 40
0.4999990687187337
 40
0.6149909630191213
 40
1.0
 40
1.0
 40
1.0
 40
1.0
 10
-127.8549082499619
 20
41.6059185967524
 30
0.0
 10
-127.8546943603359
 20
41.60591752731905
 30
0.0
 10
-127.8544165872946
 20
41.60591613847303
 30
0.0
 10
-127.8540749180441
 20
41.60591638329636
 30
0.0
 10
-127.8537332477589
 20
41.60591613847352
 30
0.0
 10
-127.8534554736827
 20
41.6059175273186
 30
0.0
 10
-127.853241583022
 20
41.6059185967524
 30
0.0
  0
LINE
  5
312C
330
A
100
AcDbEntity
  8
001
  6
Continuous
370
    15
100
AcDbLine
 10
-127.8549082499618
 20
41.60950749747923
 30
0.0
 11
-127.8549082499618
 21
41.60784083073322
 31
0.0
  0
SPLINE
  5
312D
330
A
100
AcDbEntity
  8
001
  6
Continuous
370
    15
100
AcDbSpline
210
0.0
220
0.0
230
1.0
 70
     8
 71
     3
 72
    11
 73
     7
 74
     0
 42
0.0000000001
 43
0.0000000001
 40
0.0
 40
0.0
 40
0.0
 40
0.0
 40
0.3850082302919794
 40
0.5000000000002734
 40
0.6149917697080206
 40
1.0
 40
1.0
 40
1.0
 40
1.0
 10
-127.8568304842338
 20
41.60784083073333
 30
0.0
 10
-127.8568315524654
 20
41.60805472092135
 30
0.0
 10
-127.8568329397495
 20
41.60833249444825
 30
0.0
 10
-127.85683269928
 20
41.60867416410624
 30
0.0
 10
-127.8568329397495
 20
41.60901583376424
 30
0.0
 10
-127.8568315524654
 20
41.60929360729113
 30
0.0
 10
-127.8568304842338
 20
41.60950749747915
 30
0.0
  0
LINE
  5
312E
330
A
100
AcDbEntity
  8
001
  6
Continuous
370
    15
100
AcDbLine
 10
-127.852408249552
 20
41.60950749747923
 30
0.0
 11
-127.8514390221488
 21
41.60950749747923
 31
0.0
  0
ARC
  5
312F
330
A
100
AcDbEntity
  8
001
  6
Continuous
370
    15
100
AcDbCircle
 10
-127.8524082501108
 20
41.61034083077297
 30
0.0
 40
0.0008333333333334
100
AcDbArc
 50
180.0
 51
270.0
  0
LINE
  5
3130
330
A
100
AcDbEntity
  8
001
  6
Continuous
370
    15
100
AcDbLine
 10
-127.853241583022
 20
41.61131005825548
 30
0.0
 11
-127.853241583022
 21
41.61034083085197
 31
0.0
  0
LINE
  5
3131
330
A
100
AcDbEntity
  8
001
  6
Continuous
370
    15
100
AcDbLine
 10
-127.853241583022
 20
41.60700749736047
 30
0.0
 11
-127.853241583022
 21
41.60603826995697
 31
0.0
  0
ARC
  5
3132
330
A
100
AcDbEntity
  8
001
  6
Continuous
370
    15
100
AcDbCircle
 10
-127.8524082501108
 20
41.60700749743948
 30
0.0
 40
0.0008333333333334
100
AcDbArc
 50
90.0
 51
180.0
  0
LINE
  5
3133
330
A
100
AcDbEntity
  8
001
  6
Continuous
370
    15
100
AcDbLine
 10
-127.852408249552
 20
41.60784083073322
 30
0.0
 11
-127.8514390221488
 21
41.60784083073322
 31
0.0
  0
LINE
  5
3134
330
A
100
AcDbEntity
  8
001
  6
Continuous
370
    15
100
AcDbLine
 10
-127.8549082499618
 20
41.61131005825548
 30
0.0
 11
-127.8549082499618
 21
41.61034083085197
 31
0.0
  0
ARC
  5
3135
330
A
100
AcDbEntity
  8
001
  6
Continuous
370
    15
100
AcDbCircle
 10
-127.8557415834443
 20
41.61034083077297
 30
0.0
 40
0.0008333333333334
100
AcDbArc
 50
270.0
 51
0.0
  0
LINE
  5
3136
330
A
100
AcDbEntity
  8
001
  6
Continuous
370
    15
100
AcDbLine
 10
-127.856710809283
 20
41.60950749747923
 30
0.0
 11
-127.855741584984
 21
41.60950749747923
 31
0.0
  0
LINE
  5
3137
330
A
100
AcDbEntity
  8
001
  6
Continuous
370
    15
100
AcDbLine
 10
-127.856710809283
 20
41.60784083073322
 30
0.0
 11
-127.855741584984
 21
41.60784083073322
 31
0.0
  0
ARC
  5
3138
330
A
100
AcDbEntity
  8
001
  6
Continuous
370
    15
100
AcDbCircle
 10
-127.8557415834443
 20
41.60700749743948
 30
0.0
 40
0.0008333333333334
100
AcDbArc
 50
0.0
 51
90.0
  0
LINE
  5
3139
330
A
100
AcDbEntity
  8
001
  6
Continuous
370
    15
100
AcDbLine
 10
-127.8549082499618
 20
41.60700749736047
 30
0.0
 11
-127.8549082499618
 21
41.60603826995697
 31
0.0
  0
LINE
  5
313A
330
A
100
AcDbEntity
  8
001
  6
Continuous
370
    15
100
AcDbLine
 10
-127.8549082499618
 20
41.61142973145998
 30
0.0
 11
-127.8549082499618
 21
41.61131005825548
 31
0.0
  0
LINE
  5
313B
330
A
100
AcDbEntity
  8
001
  6
Continuous
370
    15
100
AcDbLine
 10
-127.8514390221488
 20
41.60950749747923
 30
0.0
 11
-127.85131934875
 21
41.60950749747923
 31
0.0
  0
LINE
  5
313C
330
A
100
AcDbEntity
  8
001
  6
Continuous
370
    15
100
AcDbLine
 10
-127.853241583022
 20
41.60603826995697
 30
0.0
 11
-127.853241583022
 21
41.60591859675248
 31
0.0
  0
LINE
  5
313D
330
A
100
AcDbEntity
  8
001
  6
Continuous
370
    15
100
AcDbLine
 10
-127.8568304842338
 20
41.60784083073322
 30
0.0
 11
-127.856710809283
 21
41.60784083073322
 31
0.0
  0
LINE
  5
313E
330
A
100
AcDbEntity
  8
001
  6
Continuous
370
    15
100
AcDbLine
 10
-127.8549082499618
 20
41.60603826995697
 30
0.0
 11
-127.8549082499618
 21
41.60591859675248
 31
0.0
  0
LINE
  5
313F
330
A
100
AcDbEntity
  8
001
  6
Continuous
370
    15
100
AcDbLine
 10
-127.8568304842338
 20
41.60950749747923
 30
0.0
 11
-127.856710809283
 21
41.60950749747923
 31
0.0
  0
LINE
  5
3140
330
A
100
AcDbEntity
  8
001
  6
Continuous
370
    15
100
AcDbLine
 10
-127.8514390221488
 20
41.60784083073322
 30
0.0
 11
-127.85131934875
 21
41.60784083073322
 31
0.0
  0
LINE
  5
3141
330
A
100
AcDbEntity
  8
001
  6
Continuous
370
    15
100
AcDbLine
 10
-127.853241583022
 20
41.61142973145998
 30
0.0
 11
-127.853241583022
 21
41.61131005825548
 31
0.0
  0
CIRCLE
  5
3142
330
A
100
AcDbEntity
  8
001
  6
Continuous
370
    15
100
AcDbCircle
 10
-127.8540749167775
 20
41.60867416410622
 30
0.0
 40
0.0045833333333565
  0
LINE
  5
3143
330
A
100
AcDbEntity
  8
001
  6
Continuous
370
    15
100
AcDbLine
 10
-128.0520749200758
 20
41.61394083090672
 30
0.0
 11
-128.0520749200758
 21
41.60340749730572
 31
0.0
  0
LINE
  5
3144
330
A
100
AcDbEntity
  8
001
  6
Continuous
370
    15
100
AcDbLine
 10
-128.053241581656
 20
41.61277416428148
 30
0.0
 11
-128.053241581656
 21
41.60457416393097
 31
0.0
  0
LINE
  5
3145
330
A
100
AcDbEntity
  8
001
  6
Continuous
370
    15
100
AcDbLine
 10
-128.0099518829958
 20
41.61450749761972
 30
0.0
 11
-127.9990749169763
 21
41.61450749761972
 31
0.0
  0
LINE
  5
3146
330
A
100
AcDbEntity
  8
001
  6
Continuous
370
    15
100
AcDbLine
 10
-127.9990749169763
 20
41.60284083059297
 30
0.0
 11
-128.0099518829958
 21
41.60284083059297
 31
0.0
  0
SPLINE
  5
3147
330
A
100
AcDbEntity
  8
001
  6
Continuous
370
    15
100
AcDbSpline
210
0.0
220
0.0
230
1.0
 70
     8
 71
     3
 72
    17
 73
    13
 74
     0
 42
0.0000000001
 43
0.0000000001
 40
0.0
 40
0.0
 40
0.0
 40
0.0
 40
0.1038073009116096
 40
0.2074681741121808
 40
0.314815351075565
 40
0.4243782137711547
 40
0.4999934112391798
 40
0.6031801018277024
 40
0.7062424105675412
 40
0.8125918318631844
 40
0.922279679527087
 40
1.0
 40
1.0
 40
1.0
 40
1.0
 10
-127.9990749169762
 20
41.61450749761963
 30
0.0
 10
-127.9984360451825
 20
41.6144459720539
 30
0.0
 10
-127.9971592027701
 20
41.61432300770869
 30
0.0
 10
-127.9954504510586
 20
41.6133709334994
 30
0.0
 10
-127.9941065593454
 20
41.61194384605654
 30
0.0
 10
-127.9933781500503
 20
41.61027582959795
 30
0.0
 10
-127.9931650213972
 20
41.60850577447752
 30
0.0
 10
-127.9934519348262
 20
41.60676811937046
 30
0.0
 10
-127.9943598721728
 20
41.60506365436893
 30
0.0
 10
-127.9957842755593
 20
41.60372980558993
 30
0.0
 10
-127.9974467631975
 20
41.60295964837025
 30
0.0
 10
-127.9985976365673
 20
41.60287566108499
 30
0.0
 10
-127.9990749169762
 20
41.60284083059285
 30
0.0
  0
SPLINE
  5
3148
330
A
100
AcDbEntity
  8
001
  6
Continuous
370
    15
100
AcDbSpline
210
0.0
220
0.0
230
1.0
 70
    24
 71
     3
 72
    14
 73
    10
 74
     0
 42
0.0000000001
 43
0.0000000001
 40
0.0
 40
0.0
 40
0.0
 40
0.0
 40
0.1177369670828905
 40
0.2665479423324257
 40
0.417728533566343
 40
0.5689091117568824
 40
0.7177200994034151
 40
0.8620071923119921
 40
1.0
 40
1.0
 40
1.0
 40
1.0
 10
-128.012408252495
 20
41.62402265971134
 30
0.0
 10
-128.012408252495
 20
41.62400735039118
 30
0.0
 10
-128.012408252495
 20
41.62397269120225
 30
0.0
 10
-128.012408252495
 20
41.62336317755382
 30
0.0
 10
-128.012408252495
 20
41.62229399815488
 30
0.0
 10
-128.012408252495
 20
41.6207804043924
 30
0.0
 10
-128.012408252495
 20
41.61891592390134
 30
0.0
 10
-128.012408252495
 20
41.61681789955131
 30
0.0
 10
-128.012408252495
 20
41.61526609755523
 30
0.0
 10
-128.012408252495
 20
41.61450749761963
 30
0.0
  0
SPLINE
  5
3149
330
A
100
AcDbEntity
  8
001
  6
Continuous
370
    15
100
AcDbSpline
210
0.0
220
0.0
230
1.0
 70
    24
 71
     3
 72
    14
 73
    10
 74
     0
 42
0.0000000001
 43
0.0000000001
 40
0.0
 40
0.0
 40
0.0
 40
0.0
 40
0.1379928076880079
 40
0.282279900596585
 40
0.431090888243118
 40
0.5822714664336571
 40
0.7334520576675743
 40
0.8822630329171095
 40
1.0
 40
1.0
 40
1.0
 40
1.0
 10
-128.012408252495
 20
41.60284083059285
 30
0.0
 10
-128.012408252495
 20
41.60208223065725
 30
0.0
 10
-128.012408252495
 20
41.60053042866118
 30
0.0
 10
-128.012408252495
 20
41.59843240431114
 30
0.0
 10
-128.012408252495
 20
41.59656792382008
 30
0.0
 10
-128.012408252495
 20
41.59505433005761
 30
0.0
 10
-128.012408252495
 20
41.59398515065865
 30
0.0
 10
-128.012408252495
 20
41.59337563701025
 30
0.0
 10
-128.012408252495
 20
41.59334097782131
 30
0.0
 10
-128.012408252495
 20
41.59332566850115
 30
0.0
  0
SPLINE
  5
314A
330
A
100
AcDbEntity
  8
001
  6
Continuous
370
    15
100
AcDbSpline
210
0.0
220
0.0
230
1.0
 70
    24
 71
     3
 72
    12
 73
     8
 74
     0
 42
0.0000000001
 43
0.0000000001
 40
0.0
 40
0.0
 40
0.0
 40
0.0
 40
0.2010393992187879
 40
0.4019171443960873
 40
0.6072671203144039
 40
0.8235742857550134
 40
1.0
 40
1.0
 40
1.0
 40
1.0
 10
-128.0099518829957
 20
41.60284083059285
 30
0.0
 10
-128.0102209543325
 20
41.60284083059285
 30
0.0
 10
-128.0107588806484
 20
41.60284083059285
 30
0.0
 10
-128.0114729287692
 20
41.60284083059285
 30
0.0
 10
-128.012025834685
 20
41.60284083059285
 30
0.0
 10
-128.012354141372
 20
41.60284083059285
 30
0.0
 10
-128.0123914793256
 20
41.60284083059285
 30
0.0
 10
-128.012408252495
 20
41.60284083059285
 30
0.0
  0
SPLINE
  5
314B
330
A
100
AcDbEntity
  8
001
  6
Continuous
370
    15
100
AcDbSpline
210
0.0
220
0.0
230
1.0
 70
    24
 71
     3
 72
    12
 73
     8
 74
     0
 42
0.0000000001
 43
0.0000000001
 40
0.0
 40
0.0
 40
0.0
 40
0.0
 40
0.2374045648730644
 40
0.4752253109154282
 40
0.7014292974579183
 40
0.9131030697508652
 40
1.0
 40
1.0
 40
1.0
 40
1.0
 10
-128.012408252495
 20
41.61450749761963
 30
0.0
 10
-128.0123780901048
 20
41.61450749761963
 30
0.0
 10
-128.0123177124483
 20
41.61450749761963
 30
0.0
 10
-128.011837149074
 20
41.61450749761963
 30
0.0
 10
-128.0111407995062
 20
41.61450749761963
 30
0.0
 10
-128.0104657417444
 20
41.61450749761963
 30
0.0
 10
-128.0100677234556
 20
41.61450749761963
 30
0.0
 10
-128.0099518829957
 20
41.61450749761963
 30
0.0
  0
LINE
  5
314C
330
A
100
AcDbEntity
  8
001
  6
Continuous
370
    15
100
AcDbLine
 10
-128.012408252495
 20
41.60302157857373
 30
0.0
 11
-128.012408252495
 21
41.60358637798498
 31
0.0
  0
LINE
  5
314D
330
A
100
AcDbEntity
  8
001
  6
Continuous
370
    15
100
AcDbLine
 10
-128.012408252495
 20
41.61376195022747
 30
0.0
 11
-128.012408252495
 21
41.61430612976897
 31
0.0
  0
LINE
  5
314E
330
A
100
AcDbEntity
  8
001
  6
Continuous
370
    15
100
AcDbLine
 10
-128.04490825627
 20
41.63367416354748
 30
0.0
 11
-128.04490825627
 21
41.58367416466497
 31
0.0
  0
LINE
  5
314F
330
A
100
AcDbEntity
  8
001
  6
Continuous
370
    15
100
AcDbLine
 10
-127.979074913698
 20
41.63734083174648
 30
0.0
 11
-127.9649082555745
 21
41.63734083174648
 31
0.0
  0
SPLINE
  5
3150
330
A
100
AcDbEntity
  8
001
  6
Continuous
370
    15
100
AcDbSpline
210
0.0
220
0.0
230
1.0
 70
     8
 71
     3
 72
     9
 73
     5
 74
     0
 42
0.0000000001
 43
0.0000000001
 40
0.0
 40
0.0
 40
0.0
 40
0.0
 40
0.5013650455328371
 40
1.0
 40
1.0
 40
1.0
 40
1.0
 10
-127.9638607536132
 20
41.63734076965828
 30
0.0
 10
-127.9640348085164
 20
41.63729352141009
 30
0.0
 10
-127.9643819705387
 20
41.63719928219536
 30
0.0
 10
-127.9647330225209
 20
41.63729369308742
 30
0.0
 10
-127.9649080693101
 20
41.63734076965828
 30
0.0
  0
LINE
  5
3151
330
A
100
AcDbEntity
  8
001
  6
Continuous
370
    15
100
AcDbLine
 10
-127.964908243157
 20
41.63734025743098
 30
0.0
 11
-127.9652032488958
 21
41.65154558406747
 31
0.0
  0
SPLINE
  5
3152
330
A
100
AcDbEntity
  8
001
  6
Continuous
370
    15
100
AcDbSpline
210
0.0
220
0.0
230
1.0
 70
    24
 71
     3
 72
    15
 73
    11
 74
     0
 42
0.0000000001
 43
0.0000000001
 40
0.0
 40
0.0
 40
0.0
 40
0.0
 40
0.1165163900306242
 40
0.2400113236149067
 40
0.3686410934285164
 40
0.5000003458269538
 40
0.6313591937515295
 40
0.7599887442730521
 40
0.8834839568022164
 40
1.0
 40
1.0
 40
1.0
 40
1.0
 10
-127.9674082482234
 20
41.63400749786674
 30
0.0
 10
-127.9680127012128
 20
41.63400749786674
 30
0.0
 10
-127.9692578098369
 20
41.63400749786674
 30
0.0
 10
-127.9711048259226
 20
41.63400749786674
 30
0.0
 10
-127.9728810500427
 20
41.63400749786674
 30
0.0
 10
-127.9744655219078
 20
41.63400749786674
 30
0.0
 10
-127.9757545618922
 20
41.63400749786674
 30
0.0
 10
-127.9766688571522
 20
41.63400749786674
 30
0.0
 10
-127.9772202273191
 20
41.63400749786674
 30
0.0
 10
-127.977286459867
 20
41.63400749786674
 30
0.0
 10
-127.9773186131691
 20
41.63400749786674
 30
0.0
  0
SPLINE
  5
3153
330
A
100
AcDbEntity
  8
001
  6
Continuous
370
    15
100
AcDbSpline
210
0.0
220
0.0
230
1.0
 70
    24
 71
     3
 72
    15
 73
    11
 74
     0
 42
0.0000000001
 43
0.0000000001
 40
0.0
 40
0.0
 40
0.0
 40
0.0
 40
0.1165156215987137
 40
0.2400113518731867
 40
0.3686404422897661
 40
0.4999997253513412
 40
0.6313591076998529
 40
0.7599886882473202
 40
0.8834839296039229
 40
1.0
 40
1.0
 40
1.0
 40
1.0
 10
-127.9674082482234
 20
41.63400749786674
 30
0.0
 10
-127.9668037995906
 20
41.63400749786674
 30
0.0
 10
-127.9655586915829
 20
41.63400749786674
 30
0.0
 10
-127.9637116765483
 20
41.63400749786674
 30
0.0
 10
-127.9619354561369
 20
41.63400749786674
 30
0.0
 10
-127.9603509875373
 20
41.63400749786674
 30
0.0
 10
-127.9590619332795
 20
41.63400749786674
 30
0.0
 10
-127.9581476399211
 20
41.63400749786674
 30
0.0
 10
-127.9575962689838
 20
41.63400749786674
 30
0.0
 10
-127.9575300365328
 20
41.63400749786674
 30
0.0
 10
-127.9574978832777
 20
41.63400749786674
 30
0.0
  0
LINE
  5
3154
330
A
100
AcDbEntity
  8
001
  6
Continuous
370
    15
100
AcDbLine
 10
-127.9638605797663
 20
41.63734083174648
 30
0.0
 11
-127.9204630525783
 21
41.63734083174648
 31
0.0
  0
SPLINE
  5
3155
330
A
100
AcDbEntity
  8
001
  6
Continuous
370
    15
100
AcDbSpline
210
0.0
220
0.0
230
1.0
 70
     8
 71
     3
 72
    11
 73
     7
 74
     0
 42
0.0000000001
 43
0.0000000001
 40
0.0
 40
0.0
 40
0.0
 40
0.0
 40
0.1510828761546466
 40
0.440672163921906
 40
0.7303349104978612
 40
1.0
 40
1.0
 40
1.0
 40
1.0
 10
-127.9656565794721
 20
41.65301923750817
 30
0.0
 10
-127.9656261979696
 20
41.65300687341209
 30
0.0
 10
-127.9655375824838
 20
41.65297081033789
 30
0.0
 10
-127.9653975334233
 20
41.6526591081154
 30
0.0
 10
-127.9652655454224
 20
41.6521543687644
 30
0.0
 10
-127.96522352186
 20
41.65174361709614
 30
0.0
 10
-127.9652032613133
 20
41.6515455840675
 30
0.0
  0
SPLINE
  5
3156
330
A
100
AcDbEntity
  8
001
  6
Continuous
370
    15
100
AcDbSpline
210
0.0
220
0.0
230
1.0
 70
     8
 71
     3
 72
    10
 73
     6
 74
     0
 42
0.0000000001
 43
0.0000000001
 40
0.0
 40
0.0
 40
0.0
 40
0.0
 40
0.33325076144257
 40
0.6667743462992794
 40
1.0
 40
1.0
 40
1.0
 40
1.0
 10
-127.9192005579049
 20
41.65557728259742
 30
0.0
 10
-127.9244306486477
 20
41.65529457453501
 30
0.0
 10
-127.9348951118675
 20
41.65472892696469
 30
0.0
 10
-127.9504442169685
 20
41.65388843809639
 30
0.0
 10
-127.9606346623874
 20
41.653337602702
 30
0.0
 10
-127.9657276083405
 20
41.65306230807284
 30
0.0
  0
SPLINE
  5
3157
330
A
100
AcDbEntity
  8
001
  6
Continuous
370
    15
100
AcDbSpline
210
0.0
220
0.0
230
1.0
 70
     8
 71
     3
 72
    11
 73
     7
 74
     0
 42
0.0000000001
 43
0.0000000001
 40
0.0
 40
0.0
 40
0.0
 40
0.0
 40
0.2411590040613352
 40
0.5000225181639523
 40
0.7588733488060204
 40
1.0
 40
1.0
 40
1.0
 40
1.0
 10
-127.9189811320976
 20
41.65405827064295
 30
0.0
 10
-127.9189949041494
 20
41.65425488406664
 30
0.0
 10
-127.9190234593181
 20
41.65466254514318
 30
0.0
 10
-127.9190833478872
 20
41.65517067488869
 30
0.0
 10
-127.9191466858973
 20
41.65551610473739
 30
0.0
 10
-127.9191830300351
 20
41.65555737768547
 30
0.0
 10
-127.9192005579049
 20
41.65557728259742
 30
0.0
  0
LINE
  5
3158
330
A
100
AcDbEntity
  8
001
  6
Continuous
370
    15
100
AcDbLine
 10
-127.9174082524453
 20
41.63734083174648
 30
0.0
 11
-127.9174082524453
 21
41.63739712088298
 31
0.0
  0
SPLINE
  5
3159
330
A
100
AcDbEntity
  8
001
  6
Continuous
370
    15
100
AcDbSpline
210
0.0
220
0.0
230
1.0
 70
    24
 71
     3
 72
    12
 73
     8
 74
     0
 42
0.0000000001
 43
0.0000000001
 40
0.0
 40
0.0
 40
0.0
 40
0.0
 40
0.1796740905901044
 40
0.4051260277969992
 40
0.6316856422950206
 40
0.8574921573226486
 40
1.0
 40
1.0
 40
1.0
 40
1.0
 10
-127.9204630525783
 20
41.63734083174645
 30
0.0
 10
-127.9201691161255
 20
41.63734083174645
 30
0.0
 10
-127.9195063533024
 20
41.63734083174645
 30
0.0
 10
-127.9185858268764
 20
41.63734083174645
 30
0.0
 10
-127.9178450941283
 20
41.63734083174645
 30
0.0
 10
-127.9174612120397
 20
41.63734083174645
 30
0.0
 10
-127.9174230269746
 20
41.63734083174645
 30
0.0
 10
-127.9174082524454
 20
41.63734083174645
 30
0.0
  0
SPLINE
  5
315A
330
A
100
AcDbEntity
  8
001
  6
Continuous
370
    15
100
AcDbSpline
210
0.0
220
0.0
230
1.0
 70
     8
 71
     3
 72
    12
 73
     8
 74
     0
 42
0.0000000001
 43
0.0000000001
 40
0.0
 40
0.0
 40
0.0
 40
0.0
 40
0.1364450971278936
 40
0.2689877273937064
 40
0.5081199365094121
 40
0.7629379061459422
 40
1.0
 40
1.0
 40
1.0
 40
1.0
 10
-127.9174082524454
 20
41.65391497424721
 30
0.0
 10
-127.9174151162189
 20
41.65392063351023
 30
0.0
 10
-127.917428647455
 20
41.65393179017566
 30
0.0
 10
-127.9175615320996
 20
41.65395628546737
 30
0.0
 10
-127.9178556688074
 20
41.65398858295499
 30
0.0
 10
-127.9183696409704
 20
41.65402639532168
 30
0.0
 10
-127.9187822667068
 20
41.65404790434663
 30
0.0
 10
-127.9189811320976
 20
41.65405827064295
 30
0.0
  0
SPLINE
  5
315B
330
A
100
AcDbEntity
  8
001
  6
Continuous
370
    15
100
AcDbSpline
210
0.0
220
0.0
230
1.0
 70
    24
 71
     3
 72
    12
 73
     8
 74
     0
 42
0.0000000001
 43
0.0000000001
 40
0.0
 40
0.0
 40
0.0
 40
0.0
 40
0.1953596127199955
 40
0.3843271265244105
 40
0.6195912754213636
 40
0.8053706854549492
 40
1.0
 40
1.0
 40
1.0
 40
1.0
 10
-127.9174082524454
 20
41.63739712088286
 30
0.0
 10
-127.9174082524454
 20
41.63847198268976
 30
0.0
 10
-127.9174082524454
 20
41.64058653719723
 30
0.0
 10
-127.9174082524454
 20
41.64400066554235
 30
0.0
 10
-127.9174082524454
 20
41.64735735592796
 30
0.0
 10
-127.9174082524454
 20
41.650747939256
 30
0.0
 10
-127.9174082524454
 20
41.65284304890046
 30
0.0
 10
-127.9174082524454
 20
41.65391497424721
 30
0.0
  0
LINE
  5
315C
330
A
100
AcDbEntity
  8
001
  6
Continuous
370
    15
100
AcDbLine
 10
-127.9190749162808
 20
41.65558164118698
 30
0.0
 11
-127.9191648758328
 21
41.65557921043522
 31
0.0
  0
SPLINE
  5
315D
330
A
100
AcDbEntity
  8
001
  6
Continuous
370
    15
100
AcDbSpline
210
0.0
220
0.0
230
1.0
 70
     8
 71
     3
 72
    11
 73
     7
 74
     0
 42
0.0000000001
 43
0.0000000001
 40
0.0
 40
0.0
 40
0.0
 40
0.0
 40
0.1961514296459718
 40
0.4641014451084676
 40
0.7320496863522868
 40
1.0
 40
1.0
 40
1.0
 40
1.0
 10
-127.9174422457193
 20
41.65408587814847
 30
0.0
 10
-127.9174624175134
 20
41.65424513751967
 30
0.0
 10
-127.9175101447146
 20
41.65462195100739
 30
0.0
 10
-127.9178711380092
 20
41.6551202881944
 30
0.0
 10
-127.9184191528339
 20
41.65550667846448
 30
0.0
 10
-127.9188563279016
 20
41.65555665354845
 30
0.0
 10
-127.9190749162808
 20
41.65558164118706
 30
0.0
  0
SPLINE
  5
315E
330
A
100
AcDbEntity
  8
001
  6
Continuous
370
    15
100
AcDbSpline
210
0.0
220
0.0
230
1.0
 70
     8
 71
     3
 72
    12
 73
     8
 74
     0
 42
0.0000000001
 43
0.0000000001
 40
0.0
 40
0.0
 40
0.0
 40
0.0
 40
0.2627317150263408
 40
0.3800264370876691
 40
0.4934523218922208
 40
0.7268768046993443
 40
1.0
 40
1.0
 40
1.0
 40
1.0
 10
-127.9191648758327
 20
41.65557921043514
 30
0.0
 10
-127.919165486544
 20
41.65557917859213
 30
0.0
 10
-127.919166369903
 20
41.65557913253303
 30
0.0
 10
-127.919170585299
 20
41.65557890213241
 30
0.0
 10
-127.9191760051275
 20
41.6555786103431
 30
0.0
 10
-127.9191860657084
 20
41.6555780650714
 30
0.0
 10
-127.9191954812051
 20
41.65557755670255
 30
0.0
 10
-127.9192005579049
 20
41.65557728259742
 30
0.0
  0
ARC
  5
315F
330
A
100
AcDbEntity
  8
001
  6
Continuous
370
    15
100
AcDbCircle
 10
-127.9674082501108
 20
41.64095987839197
 30
0.0
 40
0.0112668430228112
100
AcDbArc
 50
69.99466631869999
 51
81.49320638739999
  0
SPLINE
  5
3160
330
A
100
AcDbEntity
  8
001
  6
Continuous
370
    15
100
AcDbSpline
210
0.0
220
0.0
230
1.0
 70
     8
 71
     3
 72
     9
 73
     5
 74
     0
 42
0.0000000001
 43
0.0000000001
 40
0.0
 40
0.0
 40
0.0
 40
0.0
 40
0.3773198431846463
 40
1.0
 40
1.0
 40
1.0
 40
1.0
 10
-128.0360749224201
 20
41.60298941457251
 30
0.0
 10
-128.0360734122929
 20
41.60293361009561
 30
0.0
 10
-128.0360694100457
 20
41.60278571308485
 30
0.0
 10
-128.0360728071258
 20
41.60263115766182
 30
0.0
 10
-128.0360749224201
 20
41.60253491906677
 30
0.0
  0
SPLINE
  5
3161
330
A
100
AcDbEntity
  8
001
  6
Continuous
370
    15
100
AcDbSpline
210
0.0
220
0.0
230
1.0
 70
     8
 71
     3
 72
     9
 73
     5
 74
     0
 42
0.0000000001
 43
0.0000000001
 40
0.0
 40
0.0
 40
0.0
 40
0.0
 40
0.3772635894352839
 40
1.0
 40
1.0
 40
1.0
 40
1.0
 10
-128.0360749224201
 20
41.61481344523447
 30
0.0
 10
-128.0360734123769
 20
41.61475581161369
 30
0.0
 10
-128.0360694097558
 20
41.61460304409944
 30
0.0
 10
-128.0360728068968
 20
41.61445258079679
 30
0.0
 10
-128.0360749224201
 20
41.61435888181979
 30
0.0
  0
SPLINE
  5
3162
330
A
100
AcDbEntity
  8
001
  6
Continuous
370
    15
100
AcDbSpline
210
0.0
220
0.0
230
1.0
 70
    24
 71
     3
 72
    10
 73
     6
 74
     0
 42
0.0000000001
 43
0.0000000001
 40
0.0
 40
0.0
 40
0.0
 40
0.0
 40
0.3332433293486166
 40
0.6667192842131837
 40
1.0
 40
1.0
 40
1.0
 40
1.0
 10
-128.035241587398
 20
41.60270527503992
 30
0.0
 10
-128.035241587398
 20
41.60153162110531
 30
0.0
 10
-128.035241587398
 20
41.5991834939493
 30
0.0
 10
-128.035241587398
 20
41.59581637309921
 30
0.0
 10
-128.035241587398
 20
41.59374373259299
 30
0.0
 10
-128.035241587398
 20
41.59270771579424
 30
0.0
  0
SPLINE
  5
3163
330
A
100
AcDbEntity
  8
001
  6
Continuous
370
    15
100
AcDbSpline
210
0.0
220
0.0
230
1.0
 70
    24
 71
     3
 72
    10
 73
     6
 74
     0
 42
0.0000000001
 43
0.0000000001
 40
0.0
 40
0.0
 40
0.0
 40
0.0
 40
0.3332434635537033
 40
0.6667192729544258
 40
1.0
 40
1.0
 40
1.0
 40
1.0
 10
-128.035241587398
 20
41.62464061241824
 30
0.0
 10
-128.035241587398
 20
41.62360469949703
 30
0.0
 10
-128.035241587398
 20
41.62153215138967
 30
0.0
 10
-128.035241587398
 20
41.61816512601928
 30
0.0
 10
-128.035241587398
 20
41.61581684843191
 30
0.0
 10
-128.035241587398
 20
41.61464305317257
 30
0.0
  0
LINE
  5
3164
330
A
100
AcDbEntity
  8
001
  6
Continuous
370
    15
100
AcDbLine
 10
-128.03607492242
 20
41.59225099830798
 30
0.0
 11
-128.03607492242
 21
41.60253491906672
 31
0.0
  0
LINE
  5
3165
330
A
100
AcDbEntity
  8
001
  6
Continuous
370
    15
100
AcDbLine
 10
-128.03607492242
 20
41.61481344523447
 30
0.0
 11
-128.03607492242
 21
41.62509729886022
 31
0.0
  0
SPLINE
  5
3166
330
A
100
AcDbEntity
  8
001
  6
Continuous
370
    15
100
AcDbSpline
210
0.0
220
0.0
230
1.0
 70
    24
 71
     3
 72
     9
 73
     5
 74
     0
 42
0.0000000001
 43
0.0000000001
 40
0.0
 40
0.0
 40
0.0
 40
0.0
 40
0.5000000146791809
 40
1.0
 40
1.0
 40
1.0
 40
1.0
 10
-128.035241587398
 20
41.61464305317257
 30
0.0
 10
-128.035241587398
 20
41.61367112336421
 30
0.0
 10
-128.035241587398
 20
41.61172726380456
 30
0.0
 10
-128.035241587398
 20
41.60969186398577
 30
0.0
 10
-128.035241587398
 20
41.60867416410624
 30
0.0
  0
SPLINE
  5
3167
330
A
100
AcDbEntity
  8
001
  6
Continuous
370
    15
100
AcDbSpline
210
0.0
220
0.0
230
1.0
 70
    24
 71
     3
 72
     9
 73
     5
 74
     0
 42
0.0000000001
 43
0.0000000001
 40
0.0
 40
0.0
 40
0.0
 40
0.0
 40
0.4999999853208757
 40
1.0
 40
1.0
 40
1.0
 40
1.0
 10
-128.035241587398
 20
41.60867416410624
 30
0.0
 10
-128.035241587398
 20
41.60765646422673
 30
0.0
 10
-128.035241587398
 20
41.60562106440792
 30
0.0
 10
-128.035241587398
 20
41.60367720484827
 30
0.0
 10
-128.035241587398
 20
41.60270527503992
 30
0.0
  0
LINE
  5
3168
330
A
100
AcDbEntity
  8
001
  6
Continuous
370
    15
100
AcDbLine
 10
-128.03607492242
 20
41.61435888181972
 30
0.0
 11
-128.03607492242
 21
41.60298941418448
 31
0.0
  0
SPLINE
  5
3169
330
A
100
AcDbEntity
  8
001
  6
Continuous
370
    15
100
AcDbSpline
210
0.0
220
0.0
230
1.0
 70
    24
 71
     3
 72
     9
 73
     5
 74
     0
 42
0.0000000001
 43
0.0000000001
 40
0.0
 40
0.0
 40
0.0
 40
0.0
 40
0.4999999723669545
 40
1.0
 40
1.0
 40
1.0
 40
1.0
 10
-128.0435749252016
 20
41.61473539496999
 30
0.0
 10
-128.0435749252016
 20
41.61627796318201
 30
0.0
 10
-128.0435749252016
 20
41.61936309977654
 30
0.0
 10
-128.0435749252016
 20
41.62213398785832
 30
0.0
 10
-128.0435749252016
 20
41.62351943197577
 30
0.0
  0
SPLINE
  5
316A
330
A
100
AcDbEntity
  8
001
  6
Continuous
370
    15
100
AcDbSpline
210
0.0
220
0.0
230
1.0
 70
    24
 71
     3
 72
     9
 73
     5
 74
     0
 42
0.0000000001
 43
0.0000000001
 40
0.0
 40
0.0
 40
0.0
 40
0.0
 40
0.5000000276330457
 40
1.0
 40
1.0
 40
1.0
 40
1.0
 10
-128.0435749252016
 20
41.59382889623671
 30
0.0
 10
-128.0435749252016
 20
41.59521434035418
 30
0.0
 10
-128.0435749252016
 20
41.59798522843596
 30
0.0
 10
-128.0435749252016
 20
41.60107036503048
 30
0.0
 10
-128.0435749252016
 20
41.60261293324249
 30
0.0
  0
SPLINE
  5
316B
330
A
100
AcDbEntity
  8
001
  6
Continuous
370
    15
100
AcDbSpline
210
0.0
220
0.0
230
1.0
 70
    24
 71
     3
 72
     9
 73
     5
 74
     0
 42
0.0000000001
 43
0.0000000001
 40
0.0
 40
0.0
 40
0.0
 40
0.0
 40
0.4999999729093846
 40
1.0
 40
1.0
 40
1.0
 40
1.0
 10
-128.0435749252016
 20
41.60261293324249
 30
0.0
 10
-128.0435749252016
 20
41.60360281511272
 30
0.0
 10
-128.0435749252016
 20
41.60558257896047
 30
0.0
 10
-128.0435749252016
 20
41.60764363568709
 30
0.0
 10
-128.0435749252016
 20
41.60867416410624
 30
0.0
  0
SPLINE
  5
316C
330
A
100
AcDbEntity
  8
001
  6
Continuous
370
    15
100
AcDbSpline
210
0.0
220
0.0
230
1.0
 70
    24
 71
     3
 72
     9
 73
     5
 74
     0
 42
0.0000000001
 43
0.0000000001
 40
0.0
 40
0.0
 40
0.0
 40
0.0
 40
0.5000000270905744
 40
1.0
 40
1.0
 40
1.0
 40
1.0
 10
-128.0435749252016
 20
41.60867416410624
 30
0.0
 10
-128.0435749252016
 20
41.60970469252538
 30
0.0
 10
-128.0435749252016
 20
41.61176574925201
 30
0.0
 10
-128.0435749252016
 20
41.61374551309975
 30
0.0
 10
-128.0435749252016
 20
41.61473539496999
 30
0.0
  0
SPLINE
  5
316D
330
A
100
AcDbEntity
  8
001
  6
Continuous
370
    15
100
AcDbSpline
210
0.0
220
0.0
230
1.0
 70
    24
 71
     3
 72
    11
 73
     7
 74
     0
 42
0.0000000001
 43
0.0000000001
 40
0.0
 40
0.0
 40
0.0
 40
0.0
 40
0.2483346929188147
 40
0.5
 40
0.7516653070811853
 40
1.0
 40
1.0
 40
1.0
 40
1.0
 10
-128.0435749252016
 20
41.62351943197577
 30
0.0
 10
-128.0435749252016
 20
41.62401523854888
 30
0.0
 10
-128.0435749252016
 20
41.62501350135155
 30
0.0
 10
-128.0435749252016
 20
41.62704901507793
 30
0.0
 10
-128.0435749252016
 20
41.62939546450264
 30
0.0
 10
-128.0435749252016
 20
41.63119669184714
 30
0.0
 10
-128.0435749252016
 20
41.63209130632608
 30
0.0
  0
SPLINE
  5
316E
330
A
100
AcDbEntity
  8
001
  6
Continuous
370
    15
100
AcDbSpline
210
0.0
220
0.0
230
1.0
 70
     8
 71
     3
 72
     9
 73
     5
 74
     0
 42
0.0000000001
 43
0.0000000001
 40
0.0
 40
0.0
 40
0.0
 40
0.0
 40
0.3772617319557621
 40
1.0
 40
1.0
 40
1.0
 40
1.0
 10
-128.0360749224201
 20
41.62539587001234
 30
0.0
 10
-128.0360734123797
 20
41.62536836085938
 30
0.0
 10
-128.0360694097463
 20
41.62529544290713
 30
0.0
 10
-128.0360728068892
 20
41.62517333815944
 30
0.0
 10
-128.0360749224201
 20
41.62509729886035
 30
0.0
  0
SPLINE
  5
316F
330
A
100
AcDbEntity
  8
001
  6
Continuous
370
    15
100
AcDbSpline
210
0.0
220
0.0
230
1.0
 70
     8
 71
     3
 72
     9
 73
     5
 74
     0
 42
0.0000000001
 43
0.0000000001
 40
0.0
 40
0.0
 40
0.0
 40
0.0
 40
0.3773216397684828
 40
1.0
 40
1.0
 40
1.0
 40
1.0
 10
-128.0360749224201
 20
41.59225099675585
 30
0.0
 10
-128.0360734122901
 20
41.59220399878953
 30
0.0
 10
-128.036069410055
 20
41.59207944201521
 30
0.0
 10
-128.0360728071331
 20
41.59200119493412
 30
0.0
 10
-128.0360749224201
 20
41.59195247216999
 30
0.0
  0
SPLINE
  5
3170
330
A
100
AcDbEntity
  8
001
  6
Continuous
370
    15
100
AcDbSpline
210
0.0
220
0.0
230
1.0
 70
    24
 71
     3
 72
    11
 73
     7
 74
     0
 42
0.0000000001
 43
0.0000000001
 40
0.0
 40
0.0
 40
0.0
 40
0.0
 40
0.2480975264377917
 40
0.5
 40
0.7519024735622083
 40
1.0
 40
1.0
 40
1.0
 40
1.0
 10
-128.035241587398
 20
41.59270771579424
 30
0.0
 10
-128.035241587398
 20
41.59223559508123
 30
0.0
 10
-128.035241587398
 20
41.59128411297699
 30
0.0
 10
-128.035241587398
 20
41.5892841907847
 30
0.0
 10
-128.035241587398
 20
41.58695530625194
 30
0.0
 10
-128.035241587398
 20
41.58515816543181
 30
0.0
 10
-128.035241587398
 20
41.58426643304754
 30
0.0
  0
SPLINE
  5
3171
330
A
100
AcDbEntity
  8
001
  6
Continuous
370
    15
100
AcDbSpline
210
0.0
220
0.0
230
1.0
 70
    24
 71
     3
 72
    11
 73
     7
 74
     0
 42
0.0000000001
 43
0.0000000001
 40
0.0
 40
0.0
 40
0.0
 40
0.0
 40
0.2480975264377917
 40
0.5
 40
0.7519024735622083
 40
1.0
 40
1.0
 40
1.0
 40
1.0
 10
-128.035241587398
 20
41.63308189516494
 30
0.0
 10
-128.035241587398
 20
41.63219016278068
 30
0.0
 10
-128.035241587398
 20
41.63039302196056
 30
0.0
 10
-128.035241587398
 20
41.6280641374278
 30
0.0
 10
-128.035241587398
 20
41.62606421523548
 30
0.0
 10
-128.035241587398
 20
41.62511273313127
 30
0.0
 10
-128.035241587398
 20
41.62464061241824
 30
0.0
  0
LINE
  5
3172
330
A
100
AcDbEntity
  8
001
  6
Continuous
370
    15
100
AcDbLine
 10
-128.03607492242
 20
41.59195247372223
 30
0.0
 11
-128.03607492242
 21
41.58391302251797
 31
0.0
  0
LINE
  5
3173
330
A
100
AcDbEntity
  8
001
  6
Continuous
370
    15
100
AcDbLine
 10
-128.03607492242
 20
41.63343530569448
 30
0.0
 11
-128.03607492242
 21
41.62539587001222
 31
0.0
  0
SPLINE
  5
3174
330
A
100
AcDbEntity
  8
001
  6
Continuous
370
    15
100
AcDbSpline
210
0.0
220
0.0
230
1.0
 70
    24
 71
     3
 72
    11
 73
     7
 74
     0
 42
0.0000000001
 43
0.0000000001
 40
0.0
 40
0.0
 40
0.0
 40
0.0
 40
0.2483346929188147
 40
0.5
 40
0.7516653070811853
 40
1.0
 40
1.0
 40
1.0
 40
1.0
 10
-128.0435749252016
 20
41.5852570218864
 30
0.0
 10
-128.0435749252016
 20
41.58615163636535
 30
0.0
 10
-128.0435749252016
 20
41.58795286370984
 30
0.0
 10
-128.0435749252016
 20
41.59029931313456
 30
0.0
 10
-128.0435749252016
 20
41.59233482686094
 30
0.0
 10
-128.0435749252016
 20
41.59333308966361
 30
0.0
 10
-128.0435749252016
 20
41.59382889623671
 30
0.0
  0
LINE
  5
3175
330
A
100
AcDbEntity
  8
001
  6
Continuous
370
    15
100
AcDbLine
 10
-128.029908250707
 20
41.61867416419323
 30
0.0
 11
-128.029908250707
 21
41.59867416401922
 31
0.0
  0
SPLINE
  5
3176
330
A
100
AcDbEntity
  8
001
  6
Continuous
370
    15
100
AcDbSpline
210
0.0
220
0.0
230
1.0
 70
     8
 71
     3
 72
     9
 73
     5
 74
     0
 42
0.0000000001
 43
0.0000000001
 40
0.0
 40
0.0
 40
0.0
 40
0.0
 40
0.3772922345024873
 40
1.0
 40
1.0
 40
1.0
 40
1.0
 10
-128.0360749224201
 20
41.58391302251795
 30
0.0
 10
-128.0360734123341
 20
41.58386161440011
 30
0.0
 10
-128.0360694099035
 20
41.58372535896431
 30
0.0
 10
-128.0360728070134
 20
41.58362886326906
 30
0.0
 10
-128.0360749224201
 20
41.58356877465029
 30
0.0
  0
SPLINE
  5
3177
330
A
100
AcDbEntity
  8
001
  6
Continuous
370
    15
100
AcDbSpline
210
0.0
220
0.0
230
1.0
 70
     8
 71
     3
 72
     9
 73
     5
 74
     0
 42
0.0000000001
 43
0.0000000001
 40
0.0
 40
0.0
 40
0.0
 40
0.0
 40
0.3773216397684828
 40
1.0
 40
1.0
 40
1.0
 40
1.0
 10
-128.0360749224201
 20
41.63377953338354
 30
0.0
 10
-128.0360734122901
 20
41.63374502458085
 30
0.0
 10
-128.036069410055
 20
41.63365356732249
 30
0.0
 10
-128.0360728071331
 20
41.63351906030415
 30
0.0
 10
-128.0360749224201
 20
41.63343530569453
 30
0.0
  0
SPLINE
  5
3178
330
A
100
AcDbEntity
  8
001
  6
Continuous
370
    15
100
AcDbSpline
210
0.0
220
0.0
230
1.0
 70
    24
 71
     3
 72
    10
 73
     6
 74
     0
 42
0.0000000001
 43
0.0000000001
 40
0.0
 40
0.0
 40
0.0
 40
0.0
 40
0.3332433293486166
 40
0.6667192842131837
 40
1.0
 40
1.0
 40
1.0
 40
1.0
 10
-128.035241587398
 20
41.63722301944076
 30
0.0
 10
-128.035241587398
 20
41.63693167119991
 30
0.0
 10
-128.035241587398
 20
41.63634877133819
 30
0.0
 10
-128.035241587398
 20
41.63495420210429
 30
0.0
 10
-128.035241587398
 20
41.63370587563345
 30
0.0
 10
-128.035241587398
 20
41.63308189516494
 30
0.0
  0
SPLINE
  5
3179
330
A
100
AcDbEntity
  8
001
  6
Continuous
370
    15
100
AcDbSpline
210
0.0
220
0.0
230
1.0
 70
    24
 71
     3
 72
    10
 73
     6
 74
     0
 42
0.0000000001
 43
0.0000000001
 40
0.0
 40
0.0
 40
0.0
 40
0.0
 40
0.3332434635537033
 40
0.6667192729544258
 40
1.0
 40
1.0
 40
1.0
 40
1.0
 10
-128.035241587398
 20
41.58426643304754
 30
0.0
 10
-128.035241587398
 20
41.58364254750629
 30
0.0
 10
-128.035241587398
 20
41.58239434143484
 30
0.0
 10
-128.035241587398
 20
41.58099954131876
 30
0.0
 10
-128.035241587398
 20
41.58041666277374
 30
0.0
 10
-128.035241587398
 20
41.58012530877172
 30
0.0
  0
LINE
  5
317A
330
A
100
AcDbEntity
  8
001
  6
Continuous
370
    15
100
AcDbLine
 10
-128.03607492242
 20
41.63377953338347
 30
0.0
 11
-128.03607492242
 21
41.63803927400698
 31
0.0
  0
LINE
  5
317B
330
A
100
AcDbEntity
  8
001
  6
Continuous
370
    15
100
AcDbLine
 10
-128.03607492242
 20
41.57930906041448
 30
0.0
 11
-128.03607492242
 21
41.58356877309798
 31
0.0
  0
SPLINE
  5
317C
330
A
100
AcDbEntity
  8
001
  6
Continuous
370
    15
100
AcDbSpline
210
0.0
220
0.0
230
1.0
 70
     8
 71
     3
 72
    12
 73
     8
 74
     0
 42
0.0000000001
 43
0.0000000001
 40
0.0
 40
0.0
 40
0.0
 40
0.0
 40
0.1459999861195479
 40
0.278998716113623
 40
0.5050850863319662
 40
0.7587968653315928
 40
1.0
 40
1.0
 40
1.0
 40
1.0
 10
-128.0435749252016
 20
41.58161855413496
 30
0.0
 10
-128.0435650118425
 20
41.58146230720406
 30
0.0
 10
-128.0435460679061
 20
41.58116372708582
 30
0.0
 10
-128.043369834939
 20
41.58064781992781
 30
0.0
 10
-128.0430003741012
 20
41.58009612866076
 30
0.0
 10
-128.0423521879181
 20
41.57962430775241
 30
0.0
 10
-128.0418224575699
 20
41.57954622331858
 30
0.0
 10
-128.0415642866865
 20
41.57950816786765
 30
0.0
  0
SPLINE
  5
317D
330
A
100
AcDbEntity
  8
001
  6
Continuous
370
    15
100
AcDbSpline
210
0.0
220
0.0
230
1.0
 70
    24
 71
     3
 72
     9
 73
     5
 74
     0
 42
0.0000000001
 43
0.0000000001
 40
0.0
 40
0.0
 40
0.0
 40
0.0
 40
0.4999999723669545
 40
1.0
 40
1.0
 40
1.0
 40
1.0
 10
-128.0435749252016
 20
41.58161855413496
 30
0.0
 10
-128.0435749252016
 20
41.58203529966804
 30
0.0
 10
-128.0435749252016
 20
41.58286879078025
 30
0.0
 10
-128.0435749252016
 20
41.58446094482169
 30
0.0
 10
-128.0435749252016
 20
41.5852570218864
 30
0.0
  0
SPLINE
  5
317E
330
A
100
AcDbEntity
  8
001
  6
Continuous
370
    15
100
AcDbSpline
210
0.0
220
0.0
230
1.0
 70
     8
 71
     3
 72
    12
 73
     8
 74
     0
 42
0.0000000001
 43
0.0000000001
 40
0.0
 40
0.0
 40
0.0
 40
0.0
 40
0.2411947798794942
 40
0.4949136435760291
 40
0.7210678746032342
 40
0.8540508576006446
 40
1.0
 40
1.0
 40
1.0
 40
1.0
 10
-128.0415642866865
 20
41.63784016034483
 30
0.0
 10
-128.0418224477346
 20
41.63780210807938
 30
0.0
 10
-128.0423521748912
 20
41.63772402767751
 30
0.0
 10
-128.0430004386813
 20
41.63725218148031
 30
0.0
 10
-128.0433698835612
 20
41.63670039173728
 30
0.0
 10
-128.043546073645
 20
41.63618447390308
 30
0.0
 10
-128.0435650145271
 20
41.63588596606484
 30
0.0
 10
-128.0435749252016
 20
41.63572977407753
 30
0.0
  0
SPLINE
  5
317F
330
A
100
AcDbEntity
  8
001
  6
Continuous
370
    15
100
AcDbSpline
210
0.0
220
0.0
230
1.0
 70
    24
 71
     3
 72
     9
 73
     5
 74
     0
 42
0.0000000001
 43
0.0000000001
 40
0.0
 40
0.0
 40
0.0
 40
0.0
 40
0.5000000276330457
 40
1.0
 40
1.0
 40
1.0
 40
1.0
 10
-128.0435749252016
 20
41.63209130632608
 30
0.0
 10
-128.0435749252016
 20
41.6328873833908
 30
0.0
 10
-128.0435749252016
 20
41.63447953743223
 30
0.0
 10
-128.0435749252016
 20
41.63531302854445
 30
0.0
 10
-128.0435749252016
 20
41.63572977407753
 30
0.0
  0
LINE
  5
3180
330
A
100
AcDbEntity
  8
001
  6
Continuous
370
    15
100
AcDbLine
 10
-128.0415642866865
 20
41.63784016034473
 30
0.0
 11
-128.0415653049325
 21
41.63785411466148
 31
0.0
  0
LINE
  5
3181
330
A
100
AcDbEntity
  8
001
  6
Continuous
370
    15
100
AcDbLine
 10
-128.0360724885638
 20
41.63804585224872
 30
0.0
 11
-128.03607492242
 21
41.63803927400698
 31
0.0
  0
SPLINE
  5
3182
330
A
100
AcDbEntity
  8
001
  6
Continuous
370
    15
100
AcDbSpline
210
0.0
220
0.0
230
1.0
 70
     8
 71
     3
 72
     9
 73
     5
 74
     0
 42
0.0000000001
 43
0.0000000001
 40
0.0
 40
0.0
 40
0.0
 40
0.0
 40
0.3772913813349468
 40
1.0
 40
1.0
 40
1.0
 40
1.0
 10
-128.0360749224201
 20
41.57930906351883
 30
0.0
 10
-128.0360734123354
 20
41.5793002296139
 30
0.0
 10
-128.0360694098991
 20
41.57927681560188
 30
0.0
 10
-128.0360728070099
 20
41.57931659815823
 30
0.0
 10
-128.0360749224201
 20
41.57934137109895
 30
0.0
  0
SPLINE
  5
3183
330
A
100
AcDbEntity
  8
001
  6
Continuous
370
    15
100
AcDbSpline
210
0.0
220
0.0
230
1.0
 70
    24
 71
     3
 72
    19
 73
    15
 74
     0
 42
0.0000000001
 43
0.0000000001
 40
0.0
 40
0.0
 40
0.0
 40
0.0
 40
0.0776770821249523
 40
0.1577379138534421
 40
0.2400413226359449
 40
0.3044067687500631
 40
0.3687451506562249
 40
0.4344801732466141
 40
0.5001875404722475
 40
0.6314540975205717
 40
0.695819538245069
 40
0.7601579176053813
 40
0.8835661342397514
 40
1.0
 40
1.0
 40
1.0
 40
1.0
 10
-127.9890749215459
 20
41.60867416410624
 30
0.0
 10
-127.9890749215459
 20
41.60783386532293
 30
0.0
 10
-127.9890749215459
 20
41.60612748071799
 30
0.0
 10
-127.9890749215459
 20
41.60356983436994
 30
0.0
 10
-127.9890749215459
 20
41.60123062878527
 30
0.0
 10
-127.9890749215459
 20
41.59915101171164
 30
0.0
 10
-127.9890749215459
 20
41.59733301383015
 30
0.0
 10
-127.9890749215459
 20
41.59561991011701
 30
0.0
 10
-127.9890749215459
 20
41.59350803276669
 30
0.0
 10
-127.9890749215459
 20
41.59171203774144
 30
0.0
 10
-127.9890749215459
 20
41.59029139313206
 30
0.0
 10
-127.9890749215459
 20
41.58916535829653
 30
0.0
 10
-127.9890749215459
 20
41.5882117021373
 30
0.0
 10
-127.9890749215459
 20
41.58807423278931
 30
0.0
 10
-127.9890749215459
 20
41.58800749684601
 30
0.0
  0
SPLINE
  5
3184
330
A
100
AcDbEntity
  8
001
  6
Continuous
370
    15
100
AcDbSpline
210
0.0
220
0.0
230
1.0
 70
    24
 71
     3
 72
    19
 73
    15
 74
     0
 42
0.0000000001
 43
0.0000000001
 40
0.0
 40
0.0
 40
0.0
 40
0.0
 40
0.0776710073077195
 40
0.1577379558848669
 40
0.2400413605601807
 40
0.3044068034622686
 40
0.3687451821577505
 40
0.4344802014677633
 40
0.5001875654144003
 40
0.6314541159121264
 40
0.6958195534245937
 40
0.7601579295742264
 40
0.8835661400501534
 40
1.0
 40
1.0
 40
1.0
 40
1.0
 10
-127.9890749215459
 20
41.62934083136647
 30
0.0
 10
-127.9890749215459
 20
41.62931119900199
 30
0.0
 10
-127.9890749215459
 20
41.62925102019443
 30
0.0
 10
-127.9890749215459
 20
41.62875473001935
 30
0.0
 10
-127.9890749215459
 20
41.62800365399427
 30
0.0
 10
-127.9890749215459
 20
41.62705593511107
 30
0.0
 10
-127.9890749215459
 20
41.62599377552578
 30
0.0
 10
-127.9890749215459
 20
41.62474382545585
 30
0.0
 10
-127.9890749215459
 20
41.6228388652128
 30
0.0
 10
-127.9890749215459
 20
41.62062734801786
 30
0.0
 10
-127.9890749215459
 20
41.61819704858327
 30
0.0
 10
-127.9890749215459
 20
41.61571276785769
 30
0.0
 10
-127.9890749215459
 20
41.61253081341595
 30
0.0
 10
-127.9890749215459
 20
41.60993454834025
 30
0.0
 10
-127.9890749215459
 20
41.60867416410624
 30
0.0
  0
LINE
  5
3185
330
A
100
AcDbEntity
  8
001
  6
Continuous
370
    15
100
AcDbLine
 10
-127.947408244945
 20
41.58550749798847
 30
0.0
 11
-127.947408244945
 21
41.63184083022398
 31
0.0
  0
LINE
  5
3186
330
A
100
AcDbEntity
  8
001
  6
Continuous
370
    15
100
AcDbLine
 10
-127.9482415799673
 20
41.60867416410622
 30
0.0
 11
-127.9482415799673
 21
41.63267416369397
 31
0.0
  0
LINE
  5
3187
330
A
100
AcDbEntity
  8
001
  6
Continuous
370
    15
100
AcDbLine
 10
-127.9482415799673
 20
41.58467416451848
 30
0.0
 11
-127.9482415799673
 21
41.60867416410622
 31
0.0
  0
SPLINE
  5
3188
330
A
100
AcDbEntity
  8
001
  6
Continuous
370
    15
100
AcDbSpline
210
0.0
220
0.0
230
1.0
 70
     8
 71
     3
 72
    18
 73
    14
 74
     0
 42
0.0000000001
 43
0.0000000001
 40
0.0
 40
0.0
 40
0.0
 40
0.0
 40
0.0324839521576665
 40
0.1366393142593296
 40
0.241719436128897
 40
0.3494860871701457
 40
0.4576897927900518
 40
0.5002532355430064
 40
0.6054454789397635
 40
0.7105610626896608
 40
0.8176493471143141
 40
0.9261155422935633
 40
1.0
 40
1.0
 40
1.0
 40
1.0
 10
-127.9616442928091
 20
41.63265746508021
 30
0.0
 10
-127.9616243507102
 20
41.63266226018591
 30
0.0
 10
-127.961540466991
 20
41.63268243014401
 30
0.0
 10
-127.9620414941348
 20
41.63256061630756
 30
0.0
 10
-127.9631009930701
 20
41.63233783945359
 30
0.0
 10
-127.9646951422887
 20
41.63208912363865
 30
0.0
 10
-127.9662281166296
 20
41.63196990600545
 30
0.0
 10
-127.9677899124162
 20
41.63194352096861
 30
0.0
 10
-127.9693427649125
 20
41.63200993096723
 30
0.0
 10
-127.9710704457601
 20
41.63222464458525
 30
0.0
 10
-127.9723880454338
 20
41.63247301570935
 30
0.0
 10
-127.9731601362286
 20
41.63265405512066
 30
0.0
 10
-127.9731687240444
 20
41.63265648183084
 30
0.0
 10
-127.9731722036377
 20
41.63265746508021
 30
0.0
  0
SPLINE
  5
3189
330
A
100
AcDbEntity
  8
001
  6
Continuous
370
    15
100
AcDbSpline
210
0.0
220
0.0
230
1.0
 70
     8
 71
     3
 72
    12
 73
     8
 74
     0
 42
0.0000000001
 43
0.0000000001
 40
0.0
 40
0.0
 40
0.0
 40
0.0
 40
0.2134953171167787
 40
0.4269441417231656
 40
0.6416268707941236
 40
0.857130129026202
 40
1.0
 40
1.0
 40
1.0
 40
1.0
 10
-127.9674082482234
 20
41.58489523411025
 30
0.0
 10
-127.9670448612406
 20
41.58489025510319
 30
0.0
 10
-127.9663181664091
 20
41.58488029817332
 30
0.0
 10
-127.9653462449847
 20
41.58481045417224
 30
0.0
 10
-127.9646164178802
 20
41.58473455713852
 30
0.0
 10
-127.9641985560097
 20
41.58467968566181
 30
0.0
 10
-127.9641988983353
 20
41.58467964907301
 30
0.0
 10
-127.9641990348076
 20
41.58467963448643
 30
0.0
  0
SPLINE
  5
318A
330
A
100
AcDbEntity
  8
001
  6
Continuous
370
    15
100
AcDbSpline
210
0.0
220
0.0
230
1.0
 70
     8
 71
     3
 72
    13
 73
     9
 74
     0
 42
0.0000000001
 43
0.0000000001
 40
0.0
 40
0.0
 40
0.0
 40
0.0
 40
0.0712362710749597
 40
0.2838239914536316
 40
0.497091937701507
 40
0.7120642567862291
 40
0.9271353994811519
 40
1.0
 40
1.0
 40
1.0
 40
1.0
 10
-127.9706174740568
 20
41.58467963448643
 30
0.0
 10
-127.9706288064525
 20
41.58467811651268
 30
0.0
 10
-127.97067395769
 20
41.58467206850705
 30
0.0
 10
-127.970379203828
 20
41.58471191746866
 30
0.0
 10
-127.9697628402571
 20
41.58478300939354
 30
0.0
 10
-127.9688556581407
 20
41.58485807203482
 30
0.0
 10
-127.9680204762336
 20
41.58489230042729
 30
0.0
 10
-127.9675318893179
 20
41.58489464164508
 30
0.0
 10
-127.9674082482234
 20
41.58489523411025
 30
0.0
  0
SPLINE
  5
318B
330
A
100
AcDbEntity
  8
001
  6
Continuous
370
    15
100
AcDbSpline
210
0.0
220
0.0
230
1.0
 70
     8
 71
     3
 72
    27
 73
    23
 74
     0
 42
0.0000000001
 43
0.0000000001
 40
0.0
 40
0.0
 40
0.0
 40
0.0
 40
0.0467670211258424
 40
0.0935671809617198
 40
0.1400363895364978
 40
0.1865367275032923
 40
0.2387340668032614
 40
0.2909289795549058
 40
0.3487816807515484
 40
0.4065788408981463
 40
0.4532956610534031
 40
0.4999972878622622
 40
0.5476387563696895
 40
0.5952969619772194
 40
0.6427538771273378
 40
0.6902372696368206
 40
0.7413599556555122
 40
0.792492833266749
 40
0.8499105143207826
 40
0.9072641656800792
 40
0.9536480328434146
 40
1.0
 40
1.0
 40
1.0
 40
1.0
 10
-127.9215749151384
 20
41.59617416438564
 30
0.0
 10
-127.9222036938285
 20
41.59620250767763
 30
0.0
 10
-127.9234616967559
 20
41.59625921434542
 30
0.0
 10
-127.925280695045
 20
41.59669115242821
 30
0.0
 10
-127.9269825569498
 20
41.59735647426054
 30
0.0
 10
-127.9286086676341
 20
41.59828261720058
 30
0.0
 10
-127.9301210260255
 20
41.59948067849506
 30
0.0
 10
-127.9315263375987
 20
41.60100987026905
 30
0.0
 10
-127.9327035473135
 20
41.60283980909905
 30
0.0
 10
-127.9335277350135
 20
41.60481824499478
 30
0.0
 10
-127.9339773645859
 20
41.60679040620981
 30
0.0
 10
-127.9341246832825
 20
41.60868678620101
 30
0.0
 10
-127.9339733592692
 20
41.61059590146644
 30
0.0
 10
-127.9335403607145
 20
41.61245564784628
 30
0.0
 10
-127.9328370883253
 20
41.61419967246922
 30
0.0
 10
-127.9318784827384
 20
41.6158376608289
 30
0.0
 10
-127.9306640896344
 20
41.61732823994084
 30
0.0
 10
-127.9291475959415
 20
41.61869216547759
 30
0.0
 10
-127.9273459772457
 20
41.61983538763641
 30
0.0
 10
-127.9253954770674
 20
41.62063220405148
 30
0.0
 10
-127.9234449425649
 20
41.62109053979027
 30
0.0
 10
-127.9221981146493
 20
41.6211462955411
 30
0.0
 10
-127.9215749151384
 20
41.62117416382685
 30
0.0
  0
LINE
  5
318C
330
A
100
AcDbEntity
  8
001
  6
Continuous
370
    15
100
AcDbLine
 10
-127.8865749187148
 20
41.59617416438573
 30
0.0
 11
-127.9215749151385
 21
41.59617416438573
 31
0.0
  0
SPLINE
  5
318D
330
A
100
AcDbEntity
  8
001
  6
Continuous
370
    15
100
AcDbSpline
210
0.0
220
0.0
230
1.0
 70
     8
 71
     3
 72
    27
 73
    23
 74
     0
 42
0.0000000001
 43
0.0000000001
 40
0.0
 40
0.0
 40
0.0
 40
0.0
 40
0.0467670232105386
 40
0.0935671851325894
 40
0.1400363957787882
 40
0.1865367358183912
 40
0.2387341348438087
 40
0.2909290004172052
 40
0.3487817442385331
 40
0.4065788782082375
 40
0.4532957174593017
 40
0.4999973288333175
 40
0.5476387994644206
 40
0.5952969898554238
 40
0.6427539351661043
 40
0.690237217229314
 40
0.7413599518528294
 40
0.792492886137465
 40
0.8499105076303633
 40
0.9072641615462678
 40
0.9536480307772199
 40
1.0
 40
1.0
 40
1.0
 40
1.0
 10
-127.8865749187147
 20
41.62117416382685
 30
0.0
 10
-127.8859461400206
 20
41.62114582053843
 30
0.0
 10
-127.8846881370852
 20
41.62108911387778
 30
0.0
 10
-127.8828691388559
 20
41.62065717574153
 30
0.0
 10
-127.8811672767254
 20
41.61999185411104
 30
0.0
 10
-127.8795411662753
 20
41.61906571002037
 30
0.0
 10
-127.8780288042409
 20
41.61786765180596
 30
0.0
 10
-127.8766234976109
 20
41.61633845576402
 30
0.0
 10
-127.875446281019
 20
41.61450852110545
 30
0.0
 10
-127.8746221021348
 20
41.61253008179035
 30
0.0
 10
-127.8741724616925
 20
41.61055792308636
 30
0.0
 10
-127.8740251601939
 20
41.60866154130459
 30
0.0
 10
-127.8741764812696
 20
41.60675242752041
 30
0.0
 10
-127.8746094739182
 20
41.60489267876496
 30
0.0
 10
-127.8753127548554
 20
41.60314865929965
 30
0.0
 10
-127.8762713455054
 20
41.60151066376292
 30
0.0
 10
-127.8774857452364
 20
41.60002008854081
 30
0.0
 10
-127.8790022403351
 20
41.59865616432826
 30
0.0
 10
-127.8808038568791
 20
41.59751293966762
 30
0.0
 10
-127.8827543568866
 20
41.59671612428745
 30
0.0
 10
-127.8847048912652
 20
41.59625778839346
 30
0.0
 10
-127.8859517191961
 20
41.59620203266181
 30
0.0
 10
-127.8865749187147
 20
41.59617416438564
 30
0.0
  0
LINE
  5
318E
330
A
100
AcDbEntity
  8
001
  6
Continuous
370
    15
100
AcDbLine
 10
-127.9215749151385
 20
41.62117416382673
 30
0.0
 11
-127.8865749187148
 21
41.62117416382673
 31
0.0
  0
LINE
  5
318F
330
A
100
AcDbEntity
  8
001
  6
PHANTOM
370
     0
100
AcDbLine
 10
-127.8325123751225
 20
41.56927017605773
 30
0.0
 11
-127.8325123751225
 21
41.64807815215472
 31
0.0
  0
LINE
  5
3190
330
A
100
AcDbEntity
  8
001
  6
PHANTOM
370
     0
100
AcDbLine
 10
-127.8447406490645
 20
41.63245313601172
 30
0.0
 11
-127.8447406490645
 21
41.58489519220072
 31
0.0
  0
LINE
  5
3191
330
A
100
AcDbEntity
  8
001
  6
PHANTOM
370
     0
100
AcDbLine
 10
-127.84736566556
 20
41.58617416352273
 30
0.0
 11
-127.84736566556
 21
41.63117416468998
 31
0.0
  0
LINE
  5
3192
330
A
100
AcDbEntity
  8
001
  6
PHANTOM
370
     0
100
AcDbLine
 10
-127.8307415836025
 20
41.55376635292148
 30
0.0
 11
-127.833896385273
 21
41.55563861552848
 31
0.0
  0
SPLINE
  5
3193
330
A
100
AcDbEntity
  8
001
  6
PHANTOM
370
     0
100
AcDbSpline
210
0.0
220
0.0
230
1.0
 70
     8
 71
     3
 72
    11
 73
     7
 74
     0
 42
0.0000000001
 43
0.0000000001
 40
0.0
 40
0.0
 40
0.0
 40
0.0
 40
0.2500945408155372
 40
0.4999948402560767
 40
0.7497195604726189
 40
1.0
 40
1.0
 40
1.0
 40
1.0
 10
-127.833896385273
 20
41.55563861552853
 30
0.0
 10
-127.8340463141049
 20
41.55573920503074
 30
0.0
 10
-127.8343460553234
 20
41.5559403059101
 30
0.0
 10
-127.8346600205169
 20
41.55632083712645
 30
0.0
 10
-127.8348706308018
 20
41.55673558990322
 30
0.0
 10
-127.8348957008381
 20
41.55702723587153
 30
0.0
 10
-127.834908249788
 20
41.55717322092731
 30
0.0
  0
LINE
  5
3194
330
A
100
AcDbEntity
  8
001
  6
PHANTOM
370
     0
100
AcDbLine
 10
-127.834908249788
 20
41.55717322092722
 30
0.0
 11
-127.834908249788
 21
41.56589420312623
 31
0.0
  0
SPLINE
  5
3195
330
A
100
AcDbEntity
  8
001
  6
PHANTOM
370
     0
100
AcDbSpline
210
0.0
220
0.0
230
1.0
 70
     8
 71
     3
 72
    11
 73
     7
 74
     0
 42
0.0000000001
 43
0.0000000001
 40
0.0
 40
0.0
 40
0.0
 40
0.0
 40
0.2500947865967442
 40
0.4999963989113715
 40
0.7497207529377809
 40
1.0
 40
1.0
 40
1.0
 40
1.0
 10
-127.834908249788
 20
41.56589420312623
 30
0.0
 10
-127.8348956693666
 20
41.56604007511404
 30
0.0
 10
-127.8348705182411
 20
41.56633170641752
 30
0.0
 10
-127.8346601495661
 20
41.56674638882291
 30
0.0
 10
-127.8343462626052
 20
41.56712709337795
 30
0.0
 10
-127.8340464552903
 20
41.56732816242864
 30
0.0
 10
-127.833896385273
 20
41.567428808525
 30
0.0
  0
LINE
  5
3196
330
A
100
AcDbEntity
  8
001
  6
PHANTOM
370
     0
100
AcDbLine
 10
-127.833896385273
 20
41.56742880852497
 30
0.0
 11
-127.8320075400795
 21
41.56854977321097
 31
0.0
  0
ARC
  5
3197
330
A
100
AcDbEntity
  8
001
  6
PHANTOM
370
     0
100
AcDbCircle
 10
-127.833289684655
 20
41.55493135078198
 30
0.0
 40
0.0009318310262643
100
AcDbArc
 50
130.6234088123999
 51
174.8959615165999
  0
LINE
  5
3198
330
A
100
AcDbEntity
  8
001
  6
PHANTOM
370
     0
100
AcDbLine
 10
-127.8307415836025
 20
41.55295122215123
 30
0.0
 11
-127.8342178207823
 21
41.55501425066573
 31
0.0
  0
LINE
  5
3199
330
A
100
AcDbEntity
  8
001
  6
PHANTOM
370
     0
100
AcDbLine
 10
-127.8342178207823
 20
41.55501425066573
 30
0.0
 11
-127.8342178207823
 21
41.55100730979422
 31
0.0
  0
LINE
  5
319A
330
A
100
AcDbEntity
  8
001
  6
PHANTOM
370
     0
100
AcDbLine
 10
-127.8342178207823
 20
41.55100730979422
 30
0.0
 11
-127.8307415836025
 21
41.54894428748873
 31
0.0
  0
ARC
  5
319B
330
A
100
AcDbEntity
  8
001
  6
PHANTOM
370
     0
100
AcDbCircle
 10
-127.833237330721
 20
41.55695592477022
 30
0.0
 40
0.0021751917359242
100
AcDbArc
 50
183.5914833503999
 51
243.207526058
  0
ARC
  5
319C
330
A
100
AcDbEntity
  8
001
  6
PHANTOM
370
     0
100
AcDbCircle
 10
-127.834970749389
 20
41.55673127812848
 30
0.0
 40
0.0004463402709545
100
AcDbArc
 50
81.95060280109998
 51
168.5783288971
  0
ARC
  5
319D
330
A
100
AcDbEntity
  8
001
  6
PHANTOM
370
     0
100
AcDbCircle
 10
-127.833044169183
 20
41.55314962256322
 30
0.0
 40
0.0024427365958099
100
AcDbArc
 50
203.6030507548999
 51
241.2841659146999
  0
ARC
  5
319E
330
A
100
AcDbEntity
  8
001
  6
PHANTOM
370
     0
100
AcDbCircle
 10
-127.8349407636718
 20
41.56536502639748
 30
0.0
 40
0.0005301746533103
100
AcDbArc
 50
86.48403029
 51
144.0890754524999
  0
ARC
  5
319F
330
A
100
AcDbEntity
  8
001
  6
PHANTOM
370
     0
100
AcDbCircle
 10
-127.8340507912305
 20
41.55098346360547
 30
0.0
 40
0.0001687231810551
100
AcDbArc
 50
171.8749992949
 51
233.3255270190999
  0
ARC
  5
31A0
330
A
100
AcDbEntity
  8
001
  6
PHANTOM
370
     0
100
AcDbCircle
 10
-127.834084266918
 20
41.56727478158347
 30
0.0
 40
0.0002429481658256
100
AcDbArc
 50
39.34518614149999
 51
103.1448707793999
  0
SPLINE
  5
31A1
330
A
100
AcDbEntity
  8
001
  6
PHANTOM
370
     0
100
AcDbSpline
210
0.0
220
0.0
230
1.0
 70
     8
 71
     3
 72
    11
 73
     7
 74
     0
 42
0.0000000001
 43
0.0000000001
 40
0.0
 40
0.0
 40
0.0
 40
0.0
 40
0.2502571527401672
 40
0.5000050056333025
 40
0.7499140866727638
 40
1.0
 40
1.0
 40
1.0
 40
1.0
 10
-127.853241583022
 20
41.61131005825548
 30
0.0
 10
-127.8530349996183
 20
41.61122934854382
 30
0.0
 10
-127.85262225323
 20
41.61106809337333
 30
0.0
 10
-127.8521042552154
 20
41.61064461367146
 30
0.0
 10
-127.8516810459101
 20
41.61012661375415
 30
0.0
 10
-127.8515197157549
 20
41.60971391822324
 30
0.0
 10
-127.8514390221487
 20
41.60950749747915
 30
0.0
  0
SPLINE
  5
31A2
330
A
100
AcDbEntity
  8
001
  6
PHANTOM
370
     0
100
AcDbSpline
210
0.0
220
0.0
230
1.0
 70
     8
 71
     3
 72
    11
 73
     7
 74
     0
 42
0.0000000001
 43
0.0000000001
 40
0.0
 40
0.0
 40
0.0
 40
0.0
 40
0.2502574802333582
 40
0.5000048793091568
 40
0.7499141205943207
 40
1.0
 40
1.0
 40
1.0
 40
1.0
 10
-127.8514390221487
 20
41.60784083073333
 30
0.0
 10
-127.8515197319463
 20
41.60763424704273
 30
0.0
 10
-127.851680987037
 20
41.60722150072568
 30
0.0
 10
-127.852104466956
 20
41.60670350285418
 30
0.0
 10
-127.8526224667094
 20
41.60628029382496
 30
0.0
 10
-127.8530351623188
 20
41.6061189635779
 30
0.0
 10
-127.853241583022
 20
41.60603826995701
 30
0.0
  0
SPLINE
  5
31A3
330
A
100
AcDbEntity
  8
001
  6
PHANTOM
370
     0
100
AcDbSpline
210
0.0
220
0.0
230
1.0
 70
     8
 71
     3
 72
    11
 73
     7
 74
     0
 42
0.0000000001
 43
0.0000000001
 40
0.0
 40
0.0
 40
0.0
 40
0.0
 40
0.2502573234265926
 40
0.5000051707407113
 40
0.749914035648168
 40
1.0
 40
1.0
 40
1.0
 40
1.0
 10
-127.856710809283
 20
41.60950749747915
 30
0.0
 10
-127.8566301002205
 20
41.6097140813153
 30
0.0
 10
-127.8564688464039
 20
41.61012682842235
 30
0.0
 10
-127.8560453643382
 20
41.61064482425944
 30
0.0
 10
-127.8555273662277
 20
41.61106803490432
 30
0.0
 10
-127.8551146707764
 20
41.61122936475727
 30
0.0
 10
-127.8549082499619
 20
41.61131005825548
 30
0.0
  0
SPLINE
  5
31A4
330
A
100
AcDbEntity
  8
001
  6
PHANTOM
370
     0
100
AcDbSpline
210
0.0
220
0.0
230
1.0
 70
     8
 71
     3
 72
    11
 73
     7
 74
     0
 42
0.0000000001
 43
0.0000000001
 40
0.0
 40
0.0
 40
0.0
 40
0.0
 40
0.2502572073694558
 40
0.5000046536053315
 40
0.74991451578847
 40
1.0
 40
1.0
 40
1.0
 40
1.0
 10
-127.8549082499619
 20
41.60603826995701
 30
0.0
 10
-127.8551148335152
 20
41.60611897951838
 30
0.0
 10
-127.8555275798217
 20
41.60628023423987
 30
0.0
 10
-127.8560455758738
 20
41.60670371617309
 30
0.0
 10
-127.8564687894921
 20
41.60722171264931
 30
0.0
 10
-127.8566301171307
 20
41.60763440971908
 30
0.0
 10
-127.856710809283
 20
41.60784083073333
 30
0.0
  0
CIRCLE
  5
31A5
330
A
100
AcDbEntity
  8
001
  6
PHANTOM
370
     0
100
AcDbCircle
 10
-127.8540749167775
 20
41.60867416410622
 30
0.0
 40
0.0044248103283924
  0
LINE
  5
31A6
330
A
100
AcDbEntity
  8
001
  6
PHANTOM
370
     0
100
AcDbLine
 10
-128.011111652789
 20
41.61440955120048
 30
0.0
 11
-128.011111652789
 21
41.60293877701198
 31
0.0
  0
LINE
  5
31A7
330
A
100
AcDbEntity
  8
001
  6
PHANTOM
370
     0
100
AcDbLine
 10
-128.0122697089488
 20
41.60359887788622
 30
0.0
 11
-128.0122697089488
 21
41.61374945032648
 31
0.0
  0
LINE
  5
31A8
330
A
100
AcDbEntity
  8
001
  6
PHANTOM
370
     0
100
AcDbLine
 10
-128.0099518829958
 20
41.60284083059297
 30
0.0
 11
-128.0099518829958
 21
41.59079251455998
 31
0.0
  0
LINE
  5
31A9
330
A
100
AcDbEntity
  8
001
  6
PHANTOM
370
     0
100
AcDbLine
 10
-128.0099518829958
 20
41.62655581365248
 30
0.0
 11
-128.0099518829958
 21
41.61450749761972
 31
0.0
  0
LINE
  5
31AA
330
A
100
AcDbEntity
  8
001
  6
PHANTOM
370
     0
100
AcDbLine
 10
-127.9674082482233
 20
41.63558693713422
 30
0.0
 11
-127.955833498078
 21
41.63558693713422
 31
0.0
  0
LINE
  5
31AB
330
A
100
AcDbEntity
  8
001
  6
PHANTOM
370
     0
100
AcDbLine
 10
-127.9789829983688
 20
41.63558693713422
 30
0.0
 11
-127.9674082482233
 21
41.63558693713422
 31
0.0
  0
SPLINE
  5
31AC
330
A
100
AcDbEntity
  8
001
  6
PHANTOM
370
     0
100
AcDbSpline
210
0.0
220
0.0
230
1.0
 70
     8
 71
     3
 72
    16
 73
    12
 74
     0
 42
0.0000000001
 43
0.0000000001
 40
0.0
 40
0.0
 40
0.0
 40
0.0
 40
0.1568698402962013
 40
0.3047008759032776
 40
0.4434541578262945
 40
0.573095065700514
 40
0.6935925389216273
 40
0.8049218581243266
 40
0.9070620925023876
 40
0.9999977995650706
 40
1.0
 40
1.0
 40
1.0
 40
1.0
 10
-127.9674082109705
 20
41.65144892520189
 30
0.0
 10
-127.9682677356536
 20
41.65141097783974
 30
0.0
 10
-127.9699372594022
 20
41.65133726963386
 30
0.0
 10
-127.9722263652888
 20
41.65124039633598
 30
0.0
 10
-127.9741365648693
 20
41.65115790340879
 30
0.0
 10
-127.9756363224592
 20
41.65109041165446
 30
0.0
 10
-127.9767107482109
 20
41.65103775760271
 30
0.0
 10
-127.9774525578521
 20
41.65099996114742
 30
0.0
 10
-127.977714769379
 20
41.65097700501554
 30
0.0
 10
-127.9780572297803
 20
41.65097129329386
 30
0.0
 10
-127.9778824027421
 20
41.65097129331509
 30
0.0
 10
-127.9778823986029
 20
41.65097129331509
 30
0.0
  0
LINE
  5
31AD
330
A
100
AcDbEntity
  8
001
  6
PHANTOM
370
     0
100
AcDbLine
 10
-127.9652032613133
 20
41.65154558406747
 30
0.0
 11
-127.9674082109705
 21
41.65144892520197
 31
0.0
  0
SPLINE
  5
31AE
330
A
100
AcDbEntity
  8
001
  6
PHANTOM
370
     0
100
AcDbSpline
210
0.0
220
0.0
230
1.0
 70
     8
 71
     3
 72
    12
 73
     8
 74
     0
 42
0.0000000001
 43
0.0000000001
 40
0.0
 40
0.0
 40
0.0
 40
0.0
 40
0.1948603241507557
 40
0.380004420939343
 40
0.6155578202618854
 40
0.8046250767502185
 40
1.0
 40
1.0
 40
1.0
 40
1.0
 10
-127.9189811320976
 20
41.65405827064295
 30
0.0
 10
-127.9190460486482
 20
41.6529916720016
 30
0.0
 10
-127.9191726448465
 20
41.65091165801802
 30
0.0
 10
-127.9195765848156
 20
41.64756124658415
 30
0.0
 10
-127.919993006755
 20
41.64424660588838
 30
0.0
 10
-127.9203587363459
 20
41.64086635544929
 30
0.0
 10
-127.9204272188535
 20
41.63875864441348
 30
0.0
 10
-127.9204620219146
 20
41.6376874979484
 30
0.0
  0
LINE
  5
31AF
330
A
100
AcDbEntity
  8
001
  6
PHANTOM
370
     0
100
AcDbLine
 10
-127.9204620219145
 20
41.63768749794847
 30
0.0
 11
-127.9204630525783
 21
41.63734083174648
 31
0.0
  0
SPLINE
  5
31B0
330
A
100
AcDbEntity
  8
001
  6
PHANTOM
370
     0
100
AcDbSpline
210
0.0
220
0.0
230
1.0
 70
     8
 71
     3
 72
    15
 73
    11
 74
     0
 42
0.0000000001
 43
0.0000000001
 40
0.0
 40
0.0
 40
0.0
 40
0.0
 40
0.113705799951376
 40
0.2349388727045242
 40
0.3637012355513494
 40
0.4999955509567544
 40
0.6487883661928554
 40
0.7817239723906148
 40
0.8987961974677633
 40
1.0
 40
1.0
 40
1.0
 40
1.0
 10
-127.9652032613133
 20
41.6515455840675
 30
0.0
 10
-127.9634826143971
 20
41.65164056463916
 30
0.0
 10
-127.9599274145128
 20
41.65183681345361
 30
0.0
 10
-127.9543843633198
 20
41.65214115020947
 30
0.0
 10
-127.9484679802554
 20
41.65246471890056
 30
0.0
 10
-127.9420966255207
 20
41.65281178780051
 30
0.0
 10
-127.9356307098334
 20
41.65316242854186
 30
0.0
 10
-127.9294376501123
 20
41.65349669891186
 30
0.0
 10
-127.9239685143467
 20
41.65379092350341
 30
0.0
 10
-127.9205610191535
 20
41.65397358126802
 30
0.0
 10
-127.9189811320976
 20
41.65405827064295
 30
0.0
  0
SPLINE
  5
31B1
330
A
100
AcDbEntity
  8
001
  6
PHANTOM
370
     0
100
AcDbSpline
210
0.0
220
0.0
230
1.0
 70
     8
 71
     3
 72
    11
 73
     7
 74
     0
 42
0.0000000001
 43
0.0000000001
 40
0.0
 40
0.0
 40
0.0
 40
0.0
 40
0.2411579880789619
 40
0.5000013514184262
 40
0.7588452036006243
 40
1.0
 40
1.0
 40
1.0
 40
1.0
 10
-127.9174082524454
 20
41.63739712088286
 30
0.0
 10
-127.9174500285345
 20
41.6374319722251
 30
0.0
 10
-127.9175366443717
 20
41.63750423074059
 30
0.0
 10
-127.9182325839261
 20
41.63759882365969
 30
0.0
 10
-127.9192523445558
 20
41.63766736898314
 30
0.0
 10
-127.9200684198891
 20
41.63768094843216
 30
0.0
 10
-127.9204620219146
 20
41.6376874979484
 30
0.0
  0
LINE
  5
31B2
330
A
100
AcDbEntity
  8
001
  6
PHANTOM
370
     0
100
AcDbLine
 10
-128.0360458403205
 20
41.60298919687598
 30
0.0
 11
-128.03607492242
 21
41.60298941418448
 31
0.0
  0
ARC
  5
31B3
330
A
100
AcDbEntity
  8
001
  6
PHANTOM
370
     0
100
AcDbCircle
 10
-128.0581464936985
 20
41.60276208920947
 30
0.0
 40
0.0221018202333227
100
AcDbArc
 50
359.4112457869
 51
0.5887542130999961
  0
LINE
  5
31B4
330
A
100
AcDbEntity
  8
001
  6
PHANTOM
370
     0
100
AcDbLine
 10
-128.0360458403205
 20
41.60253498154298
 30
0.0
 11
-128.03607492242
 21
41.60253491906672
 31
0.0
  0
LINE
  5
31B5
330
A
100
AcDbEntity
  8
001
  6
PHANTOM
370
     0
100
AcDbLine
 10
-128.041565354603
 20
41.60269147943623
 30
0.0
 11
-128.0415642866865
 21
41.60297310284573
 31
0.0
  0
LINE
  5
31B6
330
A
100
AcDbEntity
  8
001
  6
PHANTOM
370
     0
100
AcDbLine
 10
-128.03607492242
 20
41.60298941418448
 30
0.0
 11
-128.0415642866865
 21
41.60297310284573
 31
0.0
  0
LINE
  5
31B7
330
A
100
AcDbEntity
  8
001
  6
PHANTOM
370
     0
100
AcDbLine
 10
-128.03607492242
 20
41.60253491906672
 30
0.0
 11
-128.0415642866865
 21
41.60251950529022
 31
0.0
  0
LINE
  5
31B8
330
A
100
AcDbEntity
  8
001
  6
PHANTOM
370
     0
100
AcDbLine
 10
-128.0415642866865
 20
41.60251950529022
 30
0.0
 11
-128.041565354603
 21
41.60269147943623
 31
0.0
  0
LINE
  5
31B9
330
A
100
AcDbEntity
  8
001
  6
PHANTOM
370
     0
100
AcDbLine
 10
-128.041565354603
 20
41.61465684877622
 30
0.0
 11
-128.0415642866865
 21
41.61482882292247
 31
0.0
  0
LINE
  5
31BA
330
A
100
AcDbEntity
  8
001
  6
PHANTOM
370
     0
100
AcDbLine
 10
-128.0415642866865
 20
41.61482882292247
 30
0.0
 11
-128.03607492242
 21
41.61481344523447
 31
0.0
  0
LINE
  5
31BB
330
A
100
AcDbEntity
  8
001
  6
PHANTOM
370
     0
100
AcDbLine
 10
-128.0415642866865
 20
41.61437522536672
 30
0.0
 11
-128.03607492242
 21
41.61435888181972
 31
0.0
  0
LINE
  5
31BC
330
A
100
AcDbEntity
  8
001
  6
PHANTOM
370
     0
100
AcDbLine
 10
-128.0415642866865
 20
41.61437522536672
 30
0.0
 11
-128.041565354603
 21
41.61465684877622
 31
0.0
  0
LINE
  5
31BD
330
A
100
AcDbEntity
  8
001
  6
PHANTOM
370
     0
100
AcDbLine
 10
-128.03607492242
 20
41.61481344523447
 30
0.0
 11
-128.0360458403205
 21
41.61481345571172
 31
0.0
  0
ARC
  5
31BE
330
A
100
AcDbEntity
  8
001
  6
PHANTOM
370
     0
100
AcDbCircle
 10
-128.0581570553363
 20
41.61458629352423
 30
0.0
 40
0.0221123818738387
100
AcDbArc
 50
359.411385728
 51
0.5886142720000056
  0
LINE
  5
31BF
330
A
100
AcDbEntity
  8
001
  6
PHANTOM
370
     0
100
AcDbLine
 10
-128.03607492242
 20
41.61435888181972
 30
0.0
 11
-128.0360458403205
 21
41.61435913133672
 31
0.0
  0
SPLINE
  5
31C0
330
A
100
AcDbEntity
  8
001
  6
PHANTOM
370
     0
100
AcDbSpline
210
0.0
220
0.0
230
1.0
 70
     8
 71
     3
 72
    11
 73
     7
 74
     0
 42
0.0000000001
 43
0.0000000001
 40
0.0
 40
0.0
 40
0.0
 40
0.0
 40
0.2500024434443412
 40
0.5000044341058284
 40
0.7500027698312638
 40
1.0
 40
1.0
 40
1.0
 40
1.0
 10
-128.0360458403205
 20
41.60298919687586
 30
0.0
 10
-128.0359395522252
 20
41.60298385837617
 30
0.0
 10
-128.0357269762272
 20
41.60297318138646
 30
0.0
 10
-128.0354620813361
 20
41.60290705565491
 30
0.0
 10
-128.0352774732647
 20
41.6028144886344
 30
0.0
 10
-128.0352535493359
 20
41.60274167951775
 30
0.0
 10
-128.035241587398
 20
41.60270527503992
 30
0.0
  0
SPLINE
  5
31C1
330
A
100
AcDbEntity
  8
001
  6
PHANTOM
370
     0
100
AcDbSpline
210
0.0
220
0.0
230
1.0
 70
     8
 71
     3
 72
    11
 73
     7
 74
     0
 42
0.0000000001
 43
0.0000000001
 40
0.0
 40
0.0
 40
0.0
 40
0.0
 40
0.2499977116773136
 40
0.499994477997011
 40
0.7499973780564116
 40
1.0
 40
1.0
 40
1.0
 40
1.0
 10
-128.035241587398
 20
41.60270527503992
 30
0.0
 10
-128.0352535491224
 20
41.60268343651579
 30
0.0
 10
-128.035277472526
 20
41.60263975955012
 30
0.0
 10
-128.0354620827906
 20
41.60258423288129
 30
0.0
 10
-128.0357269755846
 20
41.60254457393235
 30
0.0
 10
-128.0359395521146
 20
41.60253817900492
 30
0.0
 10
-128.0360458403205
 20
41.602534981543
 30
0.0
  0
SPLINE
  5
31C2
330
A
100
AcDbEntity
  8
001
  6
PHANTOM
370
     0
100
AcDbSpline
210
0.0
220
0.0
230
1.0
 70
     8
 71
     3
 72
    11
 73
     7
 74
     0
 42
0.0000000001
 43
0.0000000001
 40
0.0
 40
0.0
 40
0.0
 40
0.0
 40
0.2500023130555905
 40
0.5000047839495525
 40
0.7500029807727425
 40
1.0
 40
1.0
 40
1.0
 40
1.0
 10
-128.0360458403205
 20
41.61481345571185
 30
0.0
 10
-128.0359395521579
 20
41.61481024908822
 30
0.0
 10
-128.0357269757656
 20
41.61480383583896
 30
0.0
 10
-128.0354620817377
 20
41.61476414892735
 30
0.0
 10
-128.035277473221
 20
41.6147085956921
 30
0.0
 10
-128.0352535493202
 20
41.61466490064478
 30
0.0
 10
-128.035241587398
 20
41.61464305317257
 30
0.0
  0
SPLINE
  5
31C3
330
A
100
AcDbEntity
  8
001
  6
PHANTOM
370
     0
100
AcDbSpline
210
0.0
220
0.0
230
1.0
 70
     8
 71
     3
 72
    11
 73
     7
 74
     0
 42
0.0000000001
 43
0.0000000001
 40
0.0
 40
0.0
 40
0.0
 40
0.0
 40
0.2499972301687363
 40
0.4999955658941716
 40
0.7499975565556588
 40
1.0
 40
1.0
 40
1.0
 40
1.0
 10
-128.035241587398
 20
41.61464305317257
 30
0.0
 10
-128.0352535493359
 20
41.61460664869474
 30
0.0
 10
-128.0352774732647
 20
41.61453383957808
 30
0.0
 10
-128.0354620813361
 20
41.61444127255758
 30
0.0
 10
-128.0357269762272
 20
41.61437514682603
 30
0.0
 10
-128.0359395522252
 20
41.61436446983632
 30
0.0
 10
-128.0360458403205
 20
41.61435913133662
 30
0.0
  0
SPLINE
  5
31C4
330
A
100
AcDbEntity
  8
001
  6
PHANTOM
370
     0
100
AcDbSpline
210
0.0
220
0.0
230
1.0
 70
     8
 71
     3
 72
    11
 73
     7
 74
     0
 42
0.0000000001
 43
0.0000000001
 40
0.0
 40
0.0
 40
0.0
 40
0.0
 40
0.2500023673837002
 40
0.5000054426520578
 40
0.7500027547739253
 40
1.0
 40
1.0
 40
1.0
 40
1.0
 10
-128.0360458403205
 20
41.59225167817353
 30
0.0
 10
-128.0359395520812
 20
41.59226027435563
 30
0.0
 10
-128.0357269753015
 20
41.59227746674415
 30
0.0
 10
-128.0354620826214
 20
41.59238368246107
 30
0.0
 10
-128.035277472806
 20
41.59253234002509
 30
0.0
 10
-128.0352535491996
 20
41.59264925720974
 30
0.0
 10
-128.035241587398
 20
41.59270771579424
 30
0.0
  0
LINE
  5
31C5
330
A
100
AcDbEntity
  8
001
  6
PHANTOM
370
     0
100
AcDbLine
 10
-128.0360458403205
 20
41.59225167817347
 30
0.0
 11
-128.0360458403205
 21
41.60253498154298
 31
0.0
  0
LINE
  5
31C6
330
A
100
AcDbEntity
  8
001
  6
PHANTOM
370
     0
100
AcDbLine
 10
-128.0360458403205
 20
41.61481345571172
 30
0.0
 11
-128.0360458403205
 21
41.62509665003898
 31
0.0
  0
SPLINE
  5
31C7
330
A
100
AcDbEntity
  8
001
  6
PHANTOM
370
     0
100
AcDbSpline
210
0.0
220
0.0
230
1.0
 70
     8
 71
     3
 72
    11
 73
     7
 74
     0
 42
0.0000000001
 43
0.0000000001
 40
0.0
 40
0.0
 40
0.0
 40
0.0
 40
0.2499972452260748
 40
0.4999945573479423
 40
0.7499976326162999
 40
1.0
 40
1.0
 40
1.0
 40
1.0
 10
-128.035241587398
 20
41.62464061241824
 30
0.0
 10
-128.0352535491996
 20
41.62469907100275
 30
0.0
 10
-128.035277472806
 20
41.62481598818739
 30
0.0
 10
-128.0354620826214
 20
41.6249646457514
 30
0.0
 10
-128.0357269753015
 20
41.62507086146834
 30
0.0
 10
-128.0359395520812
 20
41.62508805385686
 30
0.0
 10
-128.0360458403205
 20
41.62509665003895
 30
0.0
  0
LINE
  5
31C8
330
A
100
AcDbEntity
  8
001
  6
PHANTOM
370
     0
100
AcDbLine
 10
-128.0415642866865
 20
41.59240269057672
 30
0.0
 11
-128.03607492242
 21
41.59225099830798
 31
0.0
  0
LINE
  5
31C9
330
A
100
AcDbEntity
  8
001
  6
PHANTOM
370
     0
100
AcDbLine
 10
-128.0415642866865
 20
41.59240269057672
 30
0.0
 11
-128.0415642866865
 21
41.60251950529022
 31
0.0
  0
LINE
  5
31CA
330
A
100
AcDbEntity
  8
001
  6
PHANTOM
370
     0
100
AcDbLine
 10
-128.03607492242
 20
41.59225099830798
 30
0.0
 11
-128.0360458403205
 21
41.59225167817347
 31
0.0
  0
LINE
  5
31CB
330
A
100
AcDbEntity
  8
001
  6
PHANTOM
370
     0
100
AcDbLine
 10
-128.0360458403205
 20
41.62509665003898
 30
0.0
 11
-128.03607492242
 21
41.62509729886022
 31
0.0
  0
LINE
  5
31CC
330
A
100
AcDbEntity
  8
001
  6
PHANTOM
370
     0
100
AcDbLine
 10
-128.0415642866865
 20
41.61482882292247
 30
0.0
 11
-128.0415642866865
 21
41.62494563763572
 31
0.0
  0
LINE
  5
31CD
330
A
100
AcDbEntity
  8
001
  6
PHANTOM
370
     0
100
AcDbLine
 10
-128.03607492242
 20
41.62509729886022
 30
0.0
 11
-128.0415642866865
 21
41.62494563763572
 31
0.0
  0
LINE
  5
31CE
330
A
100
AcDbEntity
  8
001
  6
PHANTOM
370
     0
100
AcDbLine
 10
-128.0360458403205
 20
41.61435913133672
 30
0.0
 11
-128.0360458403205
 21
41.60298919687598
 31
0.0
  0
LINE
  5
31CF
330
A
100
AcDbEntity
  8
001
  6
PHANTOM
370
     0
100
AcDbLine
 10
-128.0415642866865
 20
41.60297310284573
 30
0.0
 11
-128.0415642866865
 21
41.61437522536672
 31
0.0
  0
SPLINE
  5
31D0
330
A
100
AcDbEntity
  8
001
  6
PHANTOM
370
     0
100
AcDbSpline
210
0.0
220
0.0
230
1.0
 70
     8
 71
     3
 72
    12
 73
     8
 74
     0
 42
0.0000000001
 43
0.0000000001
 40
0.0
 40
0.0
 40
0.0
 40
0.0
 40
0.1459329317563515
 40
0.278912287082284
 40
0.5050861630510145
 40
0.7587965221945743
 40
1.0
 40
1.0
 40
1.0
 40
1.0
 10
-128.0435749252016
 20
41.61473539496999
 30
0.0
 10
-128.0435650241931
 20
41.61474337200589
 30
0.0
 10
-128.0435461010281
 20
41.61475861800484
 30
0.0
 10
-128.0433698916896
 20
41.61478421986521
 30
0.0
 10
-128.0430004659278
 20
41.61480714821658
 30
0.0
 10
-128.0423521819358
 20
41.61482588838327
 30
0.0
 10
-128.0418224562343
 20
41.61482786136228
 30
0.0
 10
-128.0415642866865
 20
41.61482882292237
 30
0.0
  0
SPLINE
  5
31D1
330
A
100
AcDbEntity
  8
001
  6
PHANTOM
370
     0
100
AcDbSpline
210
0.0
220
0.0
230
1.0
 70
     8
 71
     3
 72
    12
 73
     8
 74
     0
 42
0.0000000001
 43
0.0000000001
 40
0.0
 40
0.0
 40
0.0
 40
0.0
 40
0.2392400362091194
 40
0.4952544357406142
 40
0.7090955466233965
 40
0.8449876918983251
 40
1.0
 40
1.0
 40
1.0
 40
1.0
 10
-128.0415642866865
 20
41.61437522536682
 30
0.0
 10
-128.0418202321353
 20
41.61438177933745
 30
0.0
 10
-128.0423500686998
 20
41.61439534681169
 30
0.0
 10
-128.0429888791751
 20
41.61448031023144
 30
0.0
 10
-128.0433581015195
 20
41.61457231163047
 30
0.0
 10
-128.0435428867184
 20
41.61465939269554
 30
0.0
 10
-128.0435637877884
 20
41.61470897459516
 30
0.0
 10
-128.0435749252016
 20
41.61473539496999
 30
0.0
  0
SPLINE
  5
31D2
330
A
100
AcDbEntity
  8
001
  6
PHANTOM
370
     0
100
AcDbSpline
210
0.0
220
0.0
230
1.0
 70
     8
 71
     3
 72
    12
 73
     8
 74
     0
 42
0.0000000001
 43
0.0000000001
 40
0.0
 40
0.0
 40
0.0
 40
0.0
 40
0.1549957477967581
 40
0.2908791104985869
 40
0.5047451743164466
 40
0.7607514886650506
 40
1.0
 40
1.0
 40
1.0
 40
1.0
 10
-128.0435749252016
 20
41.60261293324249
 30
0.0
 10
-128.0435637810756
 20
41.6026393502851
 30
0.0
 10
-128.0435428669955
 20
41.60268892690875
 30
0.0
 10
-128.043358160483
 20
41.6027760129284
 30
0.0
 10
-128.0429888924888
 20
41.60286801232245
 30
0.0
 10
-128.0423500813801
 20
41.60295297685871
 30
0.0
 10
-128.0418202422434
 20
41.60296654724247
 30
0.0
 10
-128.0415642866865
 20
41.60297310284566
 30
0.0
  0
SPLINE
  5
31D3
330
A
100
AcDbEntity
  8
001
  6
PHANTOM
370
     0
100
AcDbSpline
210
0.0
220
0.0
230
1.0
 70
     8
 71
     3
 72
    12
 73
     8
 74
     0
 42
0.0000000001
 43
0.0000000001
 40
0.0
 40
0.0
 40
0.0
 40
0.0
 40
0.2411947798794942
 40
0.4949136435760291
 40
0.7210678746032342
 40
0.8540508576006446
 40
1.0
 40
1.0
 40
1.0
 40
1.0
 10
-128.0415642866865
 20
41.60251950529011
 30
0.0
 10
-128.0418224477346
 20
41.60252046565012
 30
0.0
 10
-128.0423521748912
 20
41.60252243623699
 30
0.0
 10
-128.0430004386813
 20
41.60254117896438
 30
0.0
 10
-128.0433698835612
 20
41.60256410807773
 30
0.0
 10
-128.043546073645
 20
41.60258970827363
 30
0.0
 10
-128.0435650145271
 20
41.60260495533303
 30
0.0
 10
-128.0435749252016
 20
41.60261293324249
 30
0.0
  0
SPLINE
  5
31D4
330
A
100
AcDbEntity
  8
001
  6
PHANTOM
370
     0
100
AcDbSpline
210
0.0
220
0.0
230
1.0
 70
     8
 71
     3
 72
    12
 73
     8
 74
     0
 42
0.0000000001
 43
0.0000000001
 40
0.0
 40
0.0
 40
0.0
 40
0.0
 40
0.2411947731786942
 40
0.4949136902641004
 40
0.7210678141154202
 40
0.8540510929230274
 40
1.0
 40
1.0
 40
1.0
 40
1.0
 10
-128.0415642866865
 20
41.62494563763568
 30
0.0
 10
-128.0418224477607
 20
41.62491940914111
 30
0.0
 10
-128.0423521750357
 20
41.62486559022593
 30
0.0
 10
-128.043000438371
 20
41.62454519860115
 30
0.0
 10
-128.0433698839812
 20
41.62417123773217
 30
0.0
 10
-128.0435460733981
 20
41.62382452976866
 30
0.0
 10
-128.0435650144542
 20
41.62362423468449
 30
0.0
 10
-128.0435749252016
 20
41.62351943197577
 30
0.0
  0
SPLINE
  5
31D5
330
A
100
AcDbEntity
  8
001
  6
PHANTOM
370
     0
100
AcDbSpline
210
0.0
220
0.0
230
1.0
 70
     8
 71
     3
 72
    12
 73
     8
 74
     0
 42
0.0000000001
 43
0.0000000001
 40
0.0
 40
0.0
 40
0.0
 40
0.0
 40
0.1459331231909012
 40
0.2789125446928971
 40
0.5050863921159053
 40
0.7587964646580888
 40
1.0
 40
1.0
 40
1.0
 40
1.0
 10
-128.0435749252016
 20
41.59382889623671
 30
0.0
 10
-128.0435650242049
 20
41.5937241041252
 30
0.0
 10
-128.0435461010698
 20
41.59352382173662
 30
0.0
 10
-128.0433698917447
 20
41.59317711882112
 30
0.0
 10
-128.043000466325
 20
41.59280314377303
 30
0.0
 10
-128.0423521813005
 20
41.59248274324667
 30
0.0
 10
-128.0418224561479
 20
41.59242892143852
 30
0.0
 10
-128.0415642866865
 20
41.5924026905768
 30
0.0
  0
SPLINE
  5
31D6
330
A
100
AcDbEntity
  8
001
  6
PHANTOM
370
     0
100
AcDbSpline
210
0.0
220
0.0
230
1.0
 70
     8
 71
     3
 72
    12
 73
     8
 74
     0
 42
0.0000000001
 43
0.0000000001
 40
0.0
 40
0.0
 40
0.0
 40
0.0
 40
0.1549955749439874
 40
0.2908793877397066
 40
0.5047453542388045
 40
0.7607513355348694
 40
1.0
 40
1.0
 40
1.0
 40
1.0
 10
-128.0435749252016
 20
41.62351943197577
 30
0.0
 10
-128.0435637809813
 20
41.62365405034845
 30
0.0
 10
-128.043542866681
 20
41.6239066879469
 30
0.0
 10
-128.0433581610115
 20
41.62432604823172
 30
0.0
 10
-128.0429888927706
 20
41.62476806959845
 30
0.0
 10
-128.0423500805131
 20
41.62515023018772
 30
0.0
 10
-128.0418202421341
 20
41.62521370717264
 30
0.0
 10
-128.0415642866865
 20
41.62524437176912
 30
0.0
  0
SPLINE
  5
31D7
330
A
100
AcDbEntity
  8
001
  6
PHANTOM
370
     0
100
AcDbSpline
210
0.0
220
0.0
230
1.0
 70
     8
 71
     3
 72
    12
 73
     8
 74
     0
 42
0.0000000001
 43
0.0000000001
 40
0.0
 40
0.0
 40
0.0
 40
0.0
 40
0.2392398493938007
 40
0.4952544554242908
 40
0.7090952302041672
 40
0.8449876025664238
 40
1.0
 40
1.0
 40
1.0
 40
1.0
 10
-128.0415642866865
 20
41.63330689028133
 30
0.0
 10
-128.0418202322562
 20
41.63328549829611
 30
0.0
 10
-128.0423500695057
 20
41.63324121438599
 30
0.0
 10
-128.0429888782297
 20
41.63297922718721
 30
0.0
 10
-128.0433581020757
 20
41.63266730735262
 30
0.0
 10
-128.0435428865829
 20
41.63237112112674
 30
0.0
 10
-128.043563787745
 20
41.63218857722363
 30
0.0
 10
-128.0435749252016
 20
41.63209130632608
 30
0.0
  0
LINE
  5
31D8
330
A
100
AcDbEntity
  8
001
  6
PHANTOM
370
     0
100
AcDbLine
 10
-128.0415642866865
 20
41.62524437176922
 30
0.0
 11
-128.0415642866865
 21
41.63330689028122
 31
0.0
  0
ARC
  5
31D9
330
A
100
AcDbEntity
  8
001
  6
PHANTOM
370
     0
100
AcDbCircle
 10
-128.0453786970543
 20
41.62524584325872
 30
0.0
 40
0.009334049144307
100
AcDbArc
 50
359.0841588983
 51
0.9158411016999925
  0
SPLINE
  5
31DA
330
A
100
AcDbEntity
  8
001
  6
PHANTOM
370
     0
100
AcDbSpline
210
0.0
220
0.0
230
1.0
 70
     8
 71
     3
 72
    11
 73
     7
 74
     0
 42
0.0000000001
 43
0.0000000001
 40
0.0
 40
0.0
 40
0.0
 40
0.0
 40
0.2500022872032616
 40
0.5000058377515585
 40
0.7500023826619591
 40
1.0
 40
1.0
 40
1.0
 40
1.0
 10
-128.0360458403205
 20
41.62539503647863
 30
0.0
 10
-128.0359395520081
 20
41.62538083059325
 30
0.0
 10
-128.0357269748461
 20
41.62535241875068
 30
0.0
 10
-128.0354620833685
 20
41.62517670850931
 30
0.0
 10
-128.0352774724025
 20
41.62493076847889
 30
0.0
 10
-128.0352535490833
 20
41.62473733124342
 30
0.0
 10
-128.035241587398
 20
41.62464061241824
 30
0.0
  0
ARC
  5
31DB
330
A
100
AcDbEntity
  8
001
  6
PHANTOM
370
     0
100
AcDbCircle
 10
-128.0453761596263
 20
41.59210250668447
 30
0.0
 40
0.0093315116932418
100
AcDbArc
 50
359.0840432842
 51
0.9159567157999905
  0
SPLINE
  5
31DC
330
A
100
AcDbEntity
  8
001
  6
PHANTOM
370
     0
100
AcDbSpline
210
0.0
220
0.0
230
1.0
 70
     8
 71
     3
 72
    11
 73
     7
 74
     0
 42
0.0000000001
 43
0.0000000001
 40
0.0
 40
0.0
 40
0.0
 40
0.0
 40
0.2499966096051641
 40
0.4999945902002639
 40
0.7499972816045175
 40
1.0
 40
1.0
 40
1.0
 40
1.0
 10
-128.035241587398
 20
41.59270771579424
 30
0.0
 10
-128.0352535493239
 20
41.59261100122847
 30
0.0
 10
-128.0352774732413
 20
41.59241757156655
 30
0.0
 10
-128.0354620819628
 20
41.59217164151695
 30
0.0
 10
-128.0357269758737
 20
41.59199594417144
 30
0.0
 10
-128.0359395521678
 20
41.59196753818804
 30
0.0
 10
-128.0360458403205
 20
41.59195333519558
 30
0.0
  0
SPLINE
  5
31DD
330
A
100
AcDbEntity
  8
001
  6
PHANTOM
370
     0
100
AcDbSpline
210
0.0
220
0.0
230
1.0
 70
     8
 71
     3
 72
     9
 73
     5
 74
     0
 42
0.0000000001
 43
0.0000000001
 40
0.0
 40
0.0
 40
0.0
 40
0.0
 40
0.499997732909444
 40
1.0
 40
1.0
 40
1.0
 40
1.0
 10
-128.0415642866865
 20
41.62494563763568
 30
0.0
 10
-128.0415648578959
 20
41.62500733214172
 30
0.0
 10
-128.04156600032
 20
41.62513072171328
 30
0.0
 10
-128.0415648578994
 20
41.62520648830266
 30
0.0
 10
-128.0415642866865
 20
41.62524437176912
 30
0.0
  0
LINE
  5
31DE
330
A
100
AcDbEntity
  8
001
  6
PHANTOM
370
     0
100
AcDbLine
 10
-128.03607492242
 20
41.62539587001222
 30
0.0
 11
-128.0415642866865
 21
41.62524437176922
 31
0.0
  0
SPLINE
  5
31DF
330
A
100
AcDbEntity
  8
001
  6
PHANTOM
370
     0
100
AcDbSpline
210
0.0
220
0.0
230
1.0
 70
     8
 71
     3
 72
     9
 73
     5
 74
     0
 42
0.0000000001
 43
0.0000000001
 40
0.0
 40
0.0
 40
0.0
 40
0.0
 40
0.5000022670905561
 40
1.0
 40
1.0
 40
1.0
 40
1.0
 10
-128.0415642866865
 20
41.59210395644336
 30
0.0
 10
-128.0415648578994
 20
41.59214183990982
 30
0.0
 10
-128.04156600032
 20
41.59221760649922
 30
0.0
 10
-128.0415648578959
 20
41.59234099607076
 30
0.0
 10
-128.0415642866865
 20
41.5924026905768
 30
0.0
  0
LINE
  5
31E0
330
A
100
AcDbEntity
  8
001
  6
PHANTOM
370
     0
100
AcDbLine
 10
-128.0415642866865
 20
41.59210395644348
 30
0.0
 11
-128.03607492242
 21
41.59195247372223
 31
0.0
  0
LINE
  5
31E1
330
A
100
AcDbEntity
  8
001
  6
PHANTOM
370
     0
100
AcDbLine
 10
-128.0360458403205
 20
41.62539503647873
 30
0.0
 11
-128.03607492242
 21
41.62539587001222
 31
0.0
  0
LINE
  5
31E2
330
A
100
AcDbEntity
  8
001
  6
PHANTOM
370
     0
100
AcDbLine
 10
-128.03607492242
 20
41.59195247372223
 30
0.0
 11
-128.0360458403205
 21
41.59195333519547
 31
0.0
  0
SPLINE
  5
31E3
330
A
100
AcDbEntity
  8
001
  6
PHANTOM
370
     0
100
AcDbSpline
210
0.0
220
0.0
230
1.0
 70
     8
 71
     3
 72
    11
 73
     7
 74
     0
 42
0.0000000001
 43
0.0000000001
 40
0.0
 40
0.0
 40
0.0
 40
0.0
 40
0.2500022872032616
 40
0.5000058377515585
 40
0.7500023826619591
 40
1.0
 40
1.0
 40
1.0
 40
1.0
 10
-128.0360458403205
 20
41.58391367133934
 30
0.0
 10
-128.0359395520081
 20
41.58392031592064
 30
0.0
 10
-128.0357269748461
 20
41.58393360511679
 30
0.0
 10
-128.0354620833685
 20
41.58401576748351
 30
0.0
 10
-128.0352774724025
 20
41.58413076269985
 30
0.0
 10
-128.0352535490833
 20
41.58422120953365
 30
0.0
 10
-128.035241587398
 20
41.58426643304754
 30
0.0
  0
LINE
  5
31E4
330
A
100
AcDbEntity
  8
001
  6
PHANTOM
370
     0
100
AcDbLine
 10
-128.0360458403205
 20
41.59195333519547
 30
0.0
 11
-128.0360458403205
 21
41.58391367133922
 31
0.0
  0
SPLINE
  5
31E5
330
A
100
AcDbEntity
  8
001
  6
PHANTOM
370
     0
100
AcDbSpline
210
0.0
220
0.0
230
1.0
 70
     8
 71
     3
 72
    12
 73
     8
 74
     0
 42
0.0000000001
 43
0.0000000001
 40
0.0
 40
0.0
 40
0.0
 40
0.0
 40
0.2392313527243648
 40
0.4952614586300979
 40
0.7088522477541046
 40
0.8448026121500419
 40
1.0
 40
1.0
 40
1.0
 40
1.0
 10
-128.0415642866865
 20
41.59210395644336
 30
0.0
 10
-128.0418202227946
 20
41.59213461054898
 30
0.0
 10
-128.0423500667667
 20
41.59219807128224
 30
0.0
 10
-128.0429886670659
 20
41.59258010198747
 30
0.0
 10
-128.0433578852015
 20
41.5930219139268
 30
0.0
 10
-128.0435427974677
 20
41.59344121518785
 30
0.0
 10
-128.0435637541595
 20
41.59369409677168
 30
0.0
 10
-128.0435749252016
 20
41.59382889623671
 30
0.0
  0
LINE
  5
31E6
330
A
100
AcDbEntity
  8
001
  6
PHANTOM
370
     0
100
AcDbLine
 10
-128.0360458403205
 20
41.63343475155772
 30
0.0
 11
-128.0360458403205
 21
41.62539503647873
 31
0.0
  0
SPLINE
  5
31E7
330
A
100
AcDbEntity
  8
001
  6
PHANTOM
370
     0
100
AcDbSpline
210
0.0
220
0.0
230
1.0
 70
     8
 71
     3
 72
    11
 73
     7
 74
     0
 42
0.0000000001
 43
0.0000000001
 40
0.0
 40
0.0
 40
0.0
 40
0.0
 40
0.2499966096051641
 40
0.4999945902002639
 40
0.7499972816045175
 40
1.0
 40
1.0
 40
1.0
 40
1.0
 10
-128.035241587398
 20
41.63308189516494
 30
0.0
 10
-128.0352535493239
 20
41.63312712632548
 30
0.0
 10
-128.0352774732413
 20
41.63321758889462
 30
0.0
 10
-128.0354620819628
 20
41.63333260940635
 30
0.0
 10
-128.0357269758737
 20
41.63341479211991
 30
0.0
 10
-128.0359395521678
 20
41.63342809841147
 30
0.0
 10
-128.0360458403205
 20
41.6334347515576
 30
0.0
  0
LINE
  5
31E8
330
A
100
AcDbEntity
  8
001
  6
PHANTOM
370
     0
100
AcDbLine
 10
-128.0360458403205
 20
41.58391367133922
 30
0.0
 11
-128.03607492242
 21
41.58391302251797
 31
0.0
  0
LINE
  5
31E9
330
A
100
AcDbEntity
  8
001
  6
PHANTOM
370
     0
100
AcDbLine
 10
-128.03607492242
 20
41.58391302251797
 30
0.0
 11
-128.0415642866865
 21
41.58404143793123
 31
0.0
  0
LINE
  5
31EA
330
A
100
AcDbEntity
  8
001
  6
PHANTOM
370
     0
100
AcDbLine
 10
-128.0415642866865
 20
41.58404143793123
 30
0.0
 11
-128.0415642866865
 21
41.59210395644348
 31
0.0
  0
LINE
  5
31EB
330
A
100
AcDbEntity
  8
001
  6
PHANTOM
370
     0
100
AcDbLine
 10
-128.03607492242
 20
41.63343530569448
 30
0.0
 11
-128.0360458403205
 21
41.63343475155772
 31
0.0
  0
LINE
  5
31EC
330
A
100
AcDbEntity
  8
001
  6
PHANTOM
370
     0
100
AcDbLine
 10
-128.0415642866865
 20
41.63330689028122
 30
0.0
 11
-128.03607492242
 21
41.63343530569448
 31
0.0
  0
SPLINE
  5
31ED
330
A
100
AcDbEntity
  8
001
  6
PHANTOM
370
     0
100
AcDbSpline
210
0.0
220
0.0
230
1.0
 70
     8
 71
     3
 72
    12
 73
     8
 74
     0
 42
0.0000000001
 43
0.0000000001
 40
0.0
 40
0.0
 40
0.0
 40
0.0
 40
0.1551773209541245
 40
0.2911232631545764
 40
0.504737595741307
 40
0.7607597153801203
 40
1.0
 40
1.0
 40
1.0
 40
1.0
 10
-128.0435749252016
 20
41.5852570218864
 30
0.0
 10
-128.0435637637172
 20
41.58515965187799
 30
0.0
 10
-128.0435428240093
 20
41.58497697908528
 30
0.0
 10
-128.0433578891302
 20
41.5846808266661
 30
0.0
 10
-128.042988700658
 20
41.58436902190667
 30
0.0
 10
-128.042350073424
 20
41.58410714788387
 30
0.0
 10
-128.0418202310766
 20
41.58406284080419
 30
0.0
 10
-128.0415642866865
 20
41.58404143793116
 30
0.0
  0
ARC
  5
31EE
330
A
100
AcDbEntity
  8
001
  6
PHANTOM
370
     0
100
AcDbCircle
 10
-128.0485742937452
 20
41.63360678934398
 30
0.0
 40
0.0125296345604115
100
AcDbArc
 50
359.2132772285
 51
0.786722771499993
  0
SPLINE
  5
31EF
330
A
100
AcDbEntity
  8
001
  6
PHANTOM
370
     0
100
AcDbSpline
210
0.0
220
0.0
230
1.0
 70
     8
 71
     3
 72
    11
 73
     7
 74
     0
 42
0.0000000001
 43
0.0000000001
 40
0.0
 40
0.0
 40
0.0
 40
0.0
 40
0.2500026036513665
 40
0.5000051666819223
 40
0.7500026030457818
 40
1.0
 40
1.0
 40
1.0
 40
1.0
 10
-128.0360458403205
 20
41.63377882713059
 30
0.0
 10
-128.0359395521616
 20
41.63376570338195
 30
0.0
 10
-128.0357269758612
 20
41.63373945588681
 30
0.0
 10
-128.0354620821972
 20
41.63357713938935
 30
0.0
 10
-128.0352774728658
 20
41.63334994082144
 30
0.0
 10
-128.0352535492199
 20
41.63317124371242
 30
0.0
 10
-128.035241587398
 20
41.63308189516494
 30
0.0
  0
ARC
  5
31F0
330
A
100
AcDbEntity
  8
001
  6
PHANTOM
370
     0
100
AcDbCircle
 10
-128.0485767696605
 20
41.58374161725473
 30
0.0
 40
0.0125321104659563
100
AcDbArc
 50
359.2133581463
 51
0.7866418536999886
  0
SPLINE
  5
31F1
330
A
100
AcDbEntity
  8
001
  6
PHANTOM
370
     0
100
AcDbSpline
210
0.0
220
0.0
230
1.0
 70
     8
 71
     3
 72
    11
 73
     7
 74
     0
 42
0.0000000001
 43
0.0000000001
 40
0.0
 40
0.0
 40
0.0
 40
0.0
 40
0.2499972452260748
 40
0.4999945573479423
 40
0.7499976326162999
 40
1.0
 40
1.0
 40
1.0
 40
1.0
 10
-128.035241587398
 20
41.58426643304754
 30
0.0
 10
-128.0352535491996
 20
41.58417708962629
 30
0.0
 10
-128.035277472806
 20
41.58399840275989
 30
0.0
 10
-128.0354620826214
 20
41.58377122022383
 30
0.0
 10
-128.0357269753015
 20
41.58360891661604
 30
0.0
 10
-128.0359395520812
 20
41.58358268097301
 30
0.0
 10
-128.0360458403205
 20
41.58356956317007
 30
0.0
  0
SPLINE
  5
31F2
330
A
100
AcDbEntity
  8
001
  6
PHANTOM
370
     0
100
AcDbSpline
210
0.0
220
0.0
230
1.0
 70
     8
 71
     3
 72
     9
 73
     5
 74
     0
 42
0.0000000001
 43
0.0000000001
 40
0.0
 40
0.0
 40
0.0
 40
0.0
 40
0.4999968080202497
 40
1.0
 40
1.0
 40
1.0
 40
1.0
 10
-128.0415642866865
 20
41.58369868949283
 30
0.0
 10
-128.0415648578952
 20
41.58374543719727
 30
0.0
 10
-128.04156600032
 20
41.58383893320301
 30
0.0
 10
-128.0415648579001
 20
41.58397393606782
 30
0.0
 10
-128.0415642866865
 20
41.58404143793116
 30
0.0
  0
LINE
  5
31F3
330
A
100
AcDbEntity
  8
001
  6
PHANTOM
370
     0
100
AcDbLine
 10
-128.03607492242
 20
41.58356877309798
 30
0.0
 11
-128.0415642866865
 21
41.58369868949272
 31
0.0
  0
SPLINE
  5
31F4
330
A
100
AcDbEntity
  8
001
  6
PHANTOM
370
     0
100
AcDbSpline
210
0.0
220
0.0
230
1.0
 70
     8
 71
     3
 72
     9
 73
     5
 74
     0
 42
0.0000000001
 43
0.0000000001
 40
0.0
 40
0.0
 40
0.0
 40
0.0
 40
0.5000031919797504
 40
1.0
 40
1.0
 40
1.0
 40
1.0
 10
-128.0415642866865
 20
41.63330689028133
 30
0.0
 10
-128.0415648579001
 20
41.63337439214466
 30
0.0
 10
-128.04156600032
 20
41.63350939500946
 30
0.0
 10
-128.0415648578952
 20
41.63360289101521
 30
0.0
 10
-128.0415642866865
 20
41.63364963871965
 30
0.0
  0
LINE
  5
31F5
330
A
100
AcDbEntity
  8
001
  6
PHANTOM
370
     0
100
AcDbLine
 10
-128.0415642866865
 20
41.63364963871972
 30
0.0
 11
-128.03607492242
 21
41.63377953338347
 31
0.0
  0
LINE
  5
31F6
330
A
100
AcDbEntity
  8
001
  6
PHANTOM
370
     0
100
AcDbLine
 10
-128.0360458403205
 20
41.58356956316998
 30
0.0
 11
-128.03607492242
 21
41.58356877309798
 31
0.0
  0
LINE
  5
31F7
330
A
100
AcDbEntity
  8
001
  6
PHANTOM
370
     0
100
AcDbLine
 10
-128.03607492242
 20
41.63377953338347
 30
0.0
 11
-128.0360458403205
 21
41.63377882713048
 31
0.0
  0
SPLINE
  5
31F8
330
A
100
AcDbEntity
  8
001
  6
PHANTOM
370
     0
100
AcDbSpline
210
0.0
220
0.0
230
1.0
 70
     8
 71
     3
 72
    12
 73
     8
 74
     0
 42
0.0000000001
 43
0.0000000001
 40
0.0
 40
0.0
 40
0.0
 40
0.0
 40
0.1459331231909012
 40
0.2789125446928971
 40
0.5050863921159053
 40
0.7587964646580888
 40
1.0
 40
1.0
 40
1.0
 40
1.0
 10
-128.0435749252016
 20
41.63209130632608
 30
0.0
 10
-128.0435650242049
 20
41.63220738037331
 30
0.0
 10
-128.0435461010698
 20
41.63242922519631
 30
0.0
 10
-128.0433698917447
 20
41.63281213169288
 30
0.0
 10
-128.043000466325
 20
41.63321853483358
 30
0.0
 10
-128.0423521813005
 20
41.63356543726921
 30
0.0
 10
-128.0418224561479
 20
41.63362204842683
 30
0.0
 10
-128.0415642866865
 20
41.63364963871965
 30
0.0
  0
SPLINE
  5
31F9
330
A
100
AcDbEntity
  8
001
  6
PHANTOM
370
     0
100
AcDbSpline
210
0.0
220
0.0
230
1.0
 70
     8
 71
     3
 72
    12
 73
     8
 74
     0
 42
0.0000000001
 43
0.0000000001
 40
0.0
 40
0.0
 40
0.0
 40
0.0
 40
0.241187481224454
 40
0.4949151577248001
 40
0.7209766878338109
 40
0.8539823768349128
 40
1.0
 40
1.0
 40
1.0
 40
1.0
 10
-128.0415642866865
 20
41.58369868949283
 30
0.0
 10
-128.0418224385178
 20
41.58372627139684
 30
0.0
 10
-128.0423521644127
 20
41.58378286928616
 30
0.0
 10
-128.0430003514374
 20
41.58412973690269
 30
0.0
 10
-128.0433697889306
 20
41.58453605627825
 30
0.0
 10
-128.04354604873
 20
41.58491894581556
 30
0.0
 10
-128.0435650050424
 20
41.5851408799805
 30
0.0
 10
-128.0435749252016
 20
41.5852570218864
 30
0.0
  0
LINE
  5
31FA
330
A
100
AcDbEntity
  8
001
  6
PHANTOM
370
     0
100
AcDbLine
 10
-128.0360458403205
 20
41.63377882713048
 30
0.0
 11
-128.0360458403205
 21
41.63803824955198
 31
0.0
  0
SPLINE
  5
31FB
330
A
100
AcDbEntity
  8
001
  6
PHANTOM
370
     0
100
AcDbSpline
210
0.0
220
0.0
230
1.0
 70
     8
 71
     3
 72
    11
 73
     7
 74
     0
 42
0.0000000001
 43
0.0000000001
 40
0.0
 40
0.0
 40
0.0
 40
0.0
 40
0.2499977116773136
 40
0.499994477997011
 40
0.7499973780564116
 40
1.0
 40
1.0
 40
1.0
 40
1.0
 10
-128.035241587398
 20
41.63722301944076
 30
0.0
 10
-128.0352535491224
 20
41.63732753156206
 30
0.0
 10
-128.035277472526
 20
41.63753655540944
 30
0.0
 10
-128.0354620827906
 20
41.63780231405715
 30
0.0
 10
-128.0357269755846
 20
41.63799218520762
 30
0.0
 10
-128.0359395521146
 20
41.63802289477626
 30
0.0
 10
-128.0360458403205
 20
41.63803824955205
 30
0.0
  0
SPLINE
  5
31FC
330
A
100
AcDbEntity
  8
001
  6
PHANTOM
370
     0
100
AcDbSpline
210
0.0
220
0.0
230
1.0
 70
     8
 71
     3
 72
    11
 73
     7
 74
     0
 42
0.0000000001
 43
0.0000000001
 40
0.0
 40
0.0
 40
0.0
 40
0.0
 40
0.2500023130555905
 40
0.5000047839495525
 40
0.7500029807727425
 40
1.0
 40
1.0
 40
1.0
 40
1.0
 10
-128.0360458403205
 20
41.5793101003913
 30
0.0
 10
-128.0359395521579
 20
41.57932545311679
 30
0.0
 10
-128.0357269757656
 20
41.57935615857747
 30
0.0
 10
-128.0354620817377
 20
41.57954602360473
 30
0.0
 10
-128.035277473221
 20
41.57981177848389
 30
0.0
 10
-128.0352535493202
 20
41.58002079883988
 30
0.0
 10
-128.035241587398
 20
41.58012530877172
 30
0.0
  0
LINE
  5
31FD
330
A
100
AcDbEntity
  8
001
  6
PHANTOM
370
     0
100
AcDbLine
 10
-128.0360458403205
 20
41.57931010039122
 30
0.0
 11
-128.0360458403205
 21
41.58356956316998
 31
0.0
  0
LINE
  5
31FE
330
A
100
AcDbEntity
  8
001
  6
PHANTOM
370
     0
100
AcDbLine
 10
-128.0360458403205
 20
41.63803824955198
 30
0.0
 11
-128.03607492242
 21
41.63803927400698
 31
0.0
  0
LINE
  5
31FF
330
A
100
AcDbEntity
  8
001
  6
PHANTOM
370
     0
100
AcDbLine
 10
-128.0415642866865
 20
41.63364963871972
 30
0.0
 11
-128.0415642866865
 21
41.63784016034473
 31
0.0
  0
LINE
  5
3200
330
A
100
AcDbEntity
  8
001
  6
PHANTOM
370
     0
100
AcDbLine
 10
-128.03607492242
 20
41.63803927400698
 30
0.0
 11
-128.0415642866865
 21
41.63784016034473
 31
0.0
  0
LINE
  5
3201
330
A
100
AcDbEntity
  8
001
  6
PHANTOM
370
     0
100
AcDbLine
 10
-128.0415642866865
 20
41.57950816786772
 30
0.0
 11
-128.03607492242
 21
41.57930906041448
 31
0.0
  0
LINE
  5
3202
330
A
100
AcDbEntity
  8
001
  6
PHANTOM
370
     0
100
AcDbLine
 10
-128.0415642866865
 20
41.57950816786772
 30
0.0
 11
-128.0415642866865
 21
41.58369868949272
 31
0.0
  0
LINE
  5
3203
330
A
100
AcDbEntity
  8
001
  6
PHANTOM
370
     0
100
AcDbLine
 10
-128.03607492242
 20
41.57930906041448
 30
0.0
 11
-128.0360458403205
 21
41.57931010039122
 31
0.0
  0
ARC
  5
3204
330
A
100
AcDbEntity
  8
001
  6
PHANTOM
370
     0
100
AcDbCircle
 10
-128.0358060431825
 20
41.57931618157547
 30
0.0
 40
0.0002398742339958
100
AcDbArc
 50
181.4526925678
 51
185.6609223324
  0
ARC
  5
3205
330
A
100
AcDbEntity
  8
001
  6
PHANTOM
370
     0
100
AcDbCircle
 10
-128.0358074888098
 20
41.63803222906572
 30
0.0
 40
0.0002384275338481
100
AcDbArc
 50
174.3245219047
 51
178.5530818591999
  0
LINE
  5
3206
330
A
100
AcDbEntity
  8
001
  6
PHANTOM
370
     0
100
AcDbLine
 10
-128.041565354603
 20
41.57949028026547
 30
0.0
 11
-128.0415642866865
 21
41.57950816786772
 31
0.0
  0
LINE
  5
3207
330
A
100
AcDbEntity
  8
001
  6
PHANTOM
370
     0
100
AcDbLine
 10
-127.9857415814573
 20
41.60867416410622
 30
0.0
 11
-127.9857415814573
 21
41.58467416451848
 31
0.0
  0
LINE
  5
3208
330
A
100
AcDbEntity
  8
001
  6
PHANTOM
370
     0
100
AcDbLine
 10
-127.9857415814573
 20
41.63267416369397
 30
0.0
 11
-127.9857415814573
 21
41.60867416410622
 31
0.0
  0
LINE
  5
3210
330
A
100
AcDbEntity
  8
001
  6
CENTERX2
 48
0.6666666667
370
     0
100
AcDbLine
 10
-128.0565926343315
 20
41.60867416410622
 30
0.0
 11
-127.822994615525
 21
41.60867416410622
 31
0.0
  0
LINE
  5
32EA
330
A
100
AcDbEntity
  8
001
  6
Continuous
370
     0
100
AcDbLine
 10
-128.0450645001108
 20
41.63367416410622
 30
0.0
 11
-128.0657568806815
 21
41.63367416410622
 31
0.0
  0
LINE
  5
32EB
330
A
100
AcDbEntity
  8
001
  6
Continuous
370
     0
100
AcDbLine
 10
-128.0450645001108
 20
41.58367416410622
 30
0.0
 11
-128.0657568806815
 21
41.58367416410622
 31
0.0
  0
LINE
  5
32F0
330
A
100
AcDbEntity
  8
001
  6
Continuous
370
     0
100
AcDbLine
 10
-127.8274082501108
 20
41.50851791410622
 30
0.0
 11
-127.8274082501108
 21
41.48865995111523
 31
0.0
  0
LINE
  5
32F1
330
A
100
AcDbEntity
  8
001
  6
Continuous
370
     0
100
AcDbLine
 10
-128.0435749167775
 20
41.58510077175598
 30
0.0
 11
-128.0435749167775
 21
41.48865995111523
 31
0.0
  0
LINE
  5
32F6
330
A
100
AcDbEntity
  8
001
  6
Continuous
370
     0
100
AcDbLine
 10
-127.9214186667775
 20
41.62117416410622
 30
0.0
 11
-127.908056615554
 21
41.62117416410622
 31
0.0
  0
LINE
  5
32F7
330
A
100
AcDbEntity
  8
001
  6
Continuous
370
     0
100
AcDbLine
 10
-127.9214186667775
 20
41.59617416410623
 30
0.0
 11
-127.908056615554
 21
41.59617416410623
 31
0.0
  0
LINE
  5
32F9
330
A
100
AcDbEntity
  8
001
  6
Continuous
370
     0
100
AcDbLine
 10
-127.900023591172
 20
41.59617416438573
 30
0.0
 11
-127.900023591172
 21
41.56536727901064
 31
0.0
  0
LINE
  5
32FD
330
A
100
AcDbEntity
  8
001
  6
Continuous
370
     0
100
AcDbLine
 10
-127.9340749167775
 20
41.60851791410623
 30
0.0
 11
-127.9340749167775
 21
41.51594045239198
 31
0.0
  0
LINE
  5
32FE
330
A
100
AcDbEntity
  8
001
  6
Continuous
370
     0
100
AcDbLine
 10
-127.8740749167775
 20
41.60851791410623
 30
0.0
 11
-127.8740749167775
 21
41.51594045239198
 31
0.0
  0
LINE
  5
3303
330
A
100
AcDbEntity
  8
001
  6
Continuous
370
     0
100
AcDbLine
 10
-127.8740749167775
 20
41.60851791410623
 30
0.0
 11
-127.8740749167775
 21
41.51594045239198
 31
0.0
  0
LINE
  5
3304
330
A
100
AcDbEntity
  8
001
  6
Continuous
370
     0
100
AcDbLine
 10
-127.8274082501108
 20
41.50883041410622
 30
0.0
 11
-127.8274082501108
 21
41.51594045239198
 31
0.0
  0
LINE
  5
3309
330
A
100
AcDbEntity
  8
001
  6
Continuous
370
    15
100
AcDbLine
 10
-127.8354082504908
 20
41.56554065134598
 30
0.0
 11
-127.8353986431223
 21
41.56560962509598
 31
0.0
  0
LINE
  5
330A
330
A
100
AcDbEntity
  8
001
  6
Continuous
370
    15
100
AcDbLine
 10
-127.8353986431223
 20
41.56560962509598
 30
0.0
 11
-127.8353701896655
 21
41.56567595078523
 31
0.0
  0
LINE
  5
330B
330
A
100
AcDbEntity
  8
001
  6
Continuous
370
    15
100
AcDbLine
 10
-127.8353701896655
 20
41.56567595078523
 30
0.0
 11
-127.8353701679348
 21
41.56567598803823
 31
0.0
  0
LINE
  5
330C
330
A
100
AcDbEntity
  8
001
  6
Continuous
370
    15
100
AcDbLine
 10
-127.9679223382845
 20
41.58485670219097
 30
0.0
 11
-127.9674082482233
 21
41.58484083090197
 31
0.0
  0
LINE
  5
330D
330
A
100
AcDbEntity
  8
001
  6
Continuous
370
    15
100
AcDbLine
 10
-127.9674082482233
 20
41.58484083090197
 30
0.0
 11
-127.9673692941045
 21
41.58484092248222
 31
0.0
  0
LINE
  5
330E
330
A
100
AcDbEntity
  8
001
  6
Continuous
370
     0
100
AcDbLine
 10
-128.4338648953997
 20
41.60867416410622
 30
0.0
 11
-128.4338648953997
 21
41.61284083077298
 31
0.0
  0
LINE
  5
330F
330
A
100
AcDbEntity
  8
001
  6
Continuous
370
     0
100
AcDbLine
 10
-128.4338648953997
 20
41.60867416410622
 30
0.0
 11
-128.4380315620664
 21
41.60867416410622
 31
0.0
  0
LINE
  5
3310
330
A
100
AcDbEntity
  8
001
  6
Continuous
370
     0
100
AcDbLine
 10
-128.4338648953997
 20
41.60867416410622
 30
0.0
 11
-128.4338648953997
 21
41.60450749743947
 31
0.0
  0
LINE
  5
3311
330
A
100
AcDbEntity
  8
001
  6
Continuous
370
     0
100
AcDbLine
 10
-128.4338648953997
 20
41.60867416410622
 30
0.0
 11
-128.4296982287329
 21
41.60867416410622
 31
0.0
  0
LINE
  5
3312
330
A
100
AcDbEntity
  8
001
  6
Continuous
370
     0
100
AcDbLine
 10
-128.4338648953997
 20
41.61700749743948
 30
0.0
 11
-128.4338648953997
 21
41.61867416410623
 31
0.0
  0
LINE
  5
3313
330
A
100
AcDbEntity
  8
001
  6
Continuous
370
     0
100
AcDbLine
 10
-128.4421982287329
 20
41.60867416410622
 30
0.0
 11
-128.4438648953997
 21
41.60867416410622
 31
0.0
  0
LINE
  5
3314
330
A
100
AcDbEntity
  8
001
  6
Continuous
370
     0
100
AcDbLine
 10
-128.4338648953997
 20
41.60034083077298
 30
0.0
 11
-128.4338648953997
 21
41.59867416410622
 31
0.0
  0
LINE
  5
3315
330
A
100
AcDbEntity
  8
001
  6
Continuous
370
     0
100
AcDbLine
 10
-128.4255315620664
 20
41.60867416410622
 30
0.0
 11
-128.4238648953996
 21
41.60867416410622
 31
0.0
  0
LINE
  5
3316
330
A
100
AcDbEntity
  8
001
  6
Continuous
370
     0
100
AcDbLine
 10
-128.3642815620664
 20
41.55309083077297
 30
0.0
 11
-128.3642815620664
 21
41.55725749743973
 31
0.0
  0
LINE
  5
3317
330
A
100
AcDbEntity
  8
001
  6
Continuous
370
     0
100
AcDbLine
 10
-128.3642815620664
 20
41.55309083077297
 30
0.0
 11
-128.3684482287332
 21
41.55309083077297
 31
0.0
  0
LINE
  5
3318
330
A
100
AcDbEntity
  8
001
  6
Continuous
370
     0
100
AcDbLine
 10
-128.3642815620664
 20
41.55309083077297
 30
0.0
 11
-128.3642815620664
 21
41.54892416410622
 31
0.0
  0
LINE
  5
3319
330
A
100
AcDbEntity
  8
001
  6
Continuous
370
     0
100
AcDbLine
 10
-128.3642815620664
 20
41.55309083077297
 30
0.0
 11
-128.3601148953997
 21
41.55309083077297
 31
0.0
  0
LINE
  5
331A
330
A
100
AcDbEntity
  8
001
  6
Continuous
370
     0
100
AcDbLine
 10
-128.3642815620664
 20
41.56142416410623
 30
0.0
 11
-128.3642815620664
 21
41.56309083077298
 31
0.0
  0
LINE
  5
331B
330
A
100
AcDbEntity
  8
001
  6
Continuous
370
     0
100
AcDbLine
 10
-128.3726148953997
 20
41.55309083077297
 30
0.0
 11
-128.3742815620664
 21
41.55309083077297
 31
0.0
  0
LINE
  5
331C
330
A
100
AcDbEntity
  8
001
  6
Continuous
370
     0
100
AcDbLine
 10
-128.3642815620664
 20
41.54475749743972
 30
0.0
 11
-128.3642815620664
 21
41.54309083077297
 31
0.0
  0
LINE
  5
331D
330
A
100
AcDbEntity
  8
001
  6
Continuous
370
     0
100
AcDbLine
 10
-128.3559482287332
 20
41.55309083077297
 30
0.0
 11
-128.3542815620664
 21
41.55309083077297
 31
0.0
  0
LINE
  5
331E
330
A
100
AcDbEntity
  8
001
  6
Continuous
370
     0
100
AcDbLine
 10
-128.2946982287329
 20
41.60867416410622
 30
0.0
 11
-128.2946982287329
 21
41.61284083077298
 31
0.0
  0
LINE
  5
331F
330
A
100
AcDbEntity
  8
001
  6
Continuous
370
     0
100
AcDbLine
 10
-128.2946982287329
 20
41.60867416410622
 30
0.0
 11
-128.2988648953996
 21
41.60867416410622
 31
0.0
  0
LINE
  5
3320
330
A
100
AcDbEntity
  8
001
  6
Continuous
370
     0
100
AcDbLine
 10
-128.2946982287329
 20
41.60867416410622
 30
0.0
 11
-128.2946982287329
 21
41.60450749743947
 31
0.0
  0
LINE
  5
3321
330
A
100
AcDbEntity
  8
001
  6
Continuous
370
     0
100
AcDbLine
 10
-128.2946982287329
 20
41.60867416410622
 30
0.0
 11
-128.2905315620662
 21
41.60867416410622
 31
0.0
  0
LINE
  5
3322
330
A
100
AcDbEntity
  8
001
  6
Continuous
370
     0
100
AcDbLine
 10
-128.2946982287329
 20
41.61700749743948
 30
0.0
 11
-128.2946982287329
 21
41.61867416410623
 31
0.0
  0
LINE
  5
3323
330
A
100
AcDbEntity
  8
001
  6
Continuous
370
     0
100
AcDbLine
 10
-128.3030315620662
 20
41.60867416410622
 30
0.0
 11
-128.3046982287329
 21
41.60867416410622
 31
0.0
  0
LINE
  5
3324
330
A
100
AcDbEntity
  8
001
  6
Continuous
370
     0
100
AcDbLine
 10
-128.2946982287329
 20
41.60034083077298
 30
0.0
 11
-128.2946982287329
 21
41.59867416410622
 31
0.0
  0
LINE
  5
3325
330
A
100
AcDbEntity
  8
001
  6
Continuous
370
     0
100
AcDbLine
 10
-128.2863648953997
 20
41.60867416410622
 30
0.0
 11
-128.2846982287329
 21
41.60867416410622
 31
0.0
  0
LINE
  5
3326
330
A
100
AcDbEntity
  8
001
  6
Continuous
370
     0
100
AcDbLine
 10
-128.3642815620664
 20
41.66425749743948
 30
0.0
 11
-128.3642815620664
 21
41.66842416410623
 31
0.0
  0
LINE
  5
3327
330
A
100
AcDbEntity
  8
001
  6
Continuous
370
     0
100
AcDbLine
 10
-128.3642815620664
 20
41.66425749743948
 30
0.0
 11
-128.3684482287332
 21
41.66425749743948
 31
0.0
  0
LINE
  5
3328
330
A
100
AcDbEntity
  8
001
  6
Continuous
370
     0
100
AcDbLine
 10
-128.3642815620664
 20
41.66425749743948
 30
0.0
 11
-128.3642815620664
 21
41.66009083077272
 31
0.0
  0
LINE
  5
3329
330
A
100
AcDbEntity
  8
001
  6
Continuous
370
     0
100
AcDbLine
 10
-128.3642815620664
 20
41.66425749743948
 30
0.0
 11
-128.3601148953997
 21
41.66425749743948
 31
0.0
  0
LINE
  5
332A
330
A
100
AcDbEntity
  8
001
  6
Continuous
370
     0
100
AcDbLine
 10
-128.3642815620664
 20
41.67259083077272
 30
0.0
 11
-128.3642815620664
 21
41.67425749743947
 31
0.0
  0
LINE
  5
332B
330
A
100
AcDbEntity
  8
001
  6
Continuous
370
     0
100
AcDbLine
 10
-128.3726148953997
 20
41.66425749743948
 30
0.0
 11
-128.3742815620664
 21
41.66425749743948
 31
0.0
  0
LINE
  5
332C
330
A
100
AcDbEntity
  8
001
  6
Continuous
370
     0
100
AcDbLine
 10
-128.3642815620664
 20
41.65592416410622
 30
0.0
 11
-128.3642815620664
 21
41.65425749743948
 31
0.0
  0
LINE
  5
332D
330
A
100
AcDbEntity
  8
001
  6
Continuous
370
     0
100
AcDbLine
 10
-128.3559482287332
 20
41.66425749743948
 30
0.0
 11
-128.3542815620664
 21
41.66425749743948
 31
0.0
  0
LINE
  5
332E
330
A
100
AcDbEntity
  8
001
  6
Continuous
370
     0
100
AcDbLine
 10
-128.3642815620664
 20
41.60867416410622
 30
0.0
 11
-128.3642815620664
 21
41.61284083077298
 31
0.0
  0
LINE
  5
332F
330
A
100
AcDbEntity
  8
001
  6
Continuous
370
     0
100
AcDbLine
 10
-128.3642815620664
 20
41.60867416410622
 30
0.0
 11
-128.3684482287332
 21
41.60867416410622
 31
0.0
  0
LINE
  5
3330
330
A
100
AcDbEntity
  8
001
  6
Continuous
370
     0
100
AcDbLine
 10
-128.3642815620664
 20
41.60867416410622
 30
0.0
 11
-128.3642815620664
 21
41.60450749743947
 31
0.0
  0
LINE
  5
3331
330
A
100
AcDbEntity
  8
001
  6
Continuous
370
     0
100
AcDbLine
 10
-128.3642815620664
 20
41.60867416410622
 30
0.0
 11
-128.3601148953997
 21
41.60867416410622
 31
0.0
  0
LINE
  5
3332
330
A
100
AcDbEntity
  8
001
  6
Continuous
370
     0
100
AcDbLine
 10
-128.3642815620664
 20
41.61700749743948
 30
0.0
 11
-128.3642815620664
 21
41.71284083077297
 31
0.0
  0
LINE
  5
3333
330
A
100
AcDbEntity
  8
001
  6
Continuous
370
     0
100
AcDbLine
 10
-128.3726148953997
 20
41.60867416410622
 30
0.0
 11
-128.4684482287332
 21
41.60867416410622
 31
0.0
  0
LINE
  5
3334
330
A
100
AcDbEntity
  8
001
  6
Continuous
370
     0
100
AcDbLine
 10
-128.3642815620664
 20
41.60034083077298
 30
0.0
 11
-128.3642815620664
 21
41.50450749743948
 31
0.0
  0
LINE
  5
3335
330
A
100
AcDbEntity
  8
001
  6
Continuous
370
     0
100
AcDbLine
 10
-128.3559482287332
 20
41.60867416410622
 30
0.0
 11
-128.2601148953997
 21
41.60867416410622
 31
0.0
  0
LINE
  5
3339
330
A
100
AcDbEntity
  8
001
  6
Continuous
370
     0
100
AcDbLine
 10
-128.3541253120664
 20
41.66425749743948
 30
0.0
 11
-128.2440988739067
 21
41.66425749743948
 31
0.0
  0
LINE
  5
333A
330
A
100
AcDbEntity
  8
001
  6
Continuous
370
     0
100
AcDbLine
 10
-128.3541253120664
 20
41.55309083077297
 30
0.0
 11
-128.2440988739067
 21
41.55309083077297
 31
0.0
  0
LINE
  5
333F
330
A
100
AcDbEntity
  8
001
  6
Continuous
370
     0
100
AcDbLine
 10
-128.364392047501
 20
41.60878464954079
 30
0.0
 11
-128.4069764779647
 21
41.65136908000447
 31
0.0
  0
LINE
  5
3340
330
A
100
AcDbEntity
  8
001
  6
Continuous
370
     0
100
AcDbLine
 10
-128.4254891493465
 20
41.57088680202028
 30
0.0
 11
-128.4564739526477
 21
41.60187160532148
 31
0.0
  0
LINE
  5
3345
330
A
100
AcDbEntity
  8
001
  6
Continuous
370
     0
100
AcDbLine
 10
-128.4642815620664
 20
41.60851791410623
 30
0.0
 11
-128.4642815620664
 21
41.39965872438986
 31
0.0
  0
LINE
  5
3346
330
A
100
AcDbEntity
  8
001
  6
Continuous
370
     0
100
AcDbLine
 10
-128.2642815620664
 20
41.60851791410623
 30
0.0
 11
-128.2642815620664
 21
41.39965872438986
 31
0.0
  0
LINE
  5
334B
330
A
100
AcDbEntity
  8
001
  6
Continuous
370
     0
100
AcDbLine
 10
-128.4338648953997
 20
41.59851791410623
 30
0.0
 11
-128.4338648953997
 21
41.44576145006226
 31
0.0
  0
LINE
  5
334C
330
A
100
AcDbEntity
  8
001
  6
Continuous
370
     0
100
AcDbLine
 10
-128.2946982287329
 20
41.59851791410623
 30
0.0
 11
-128.2946982287329
 21
41.44576145006226
 31
0.0
  0
LINE
  5
3351
330
A
100
AcDbEntity
  8
001
  6
Continuous
370
     0
100
AcDbLine
 10
-128.4279009406085
 20
41.54505478556392
 30
0.0
 11
-128.429325759319
 21
41.54362996685338
 31
0.0
  0
ARC
  5
3352
330
A
100
AcDbEntity
  8
001
  6
Continuous
370
     0
100
AcDbCircle
 10
-128.3642815620664
 20
41.60867416410622
 30
0.0
 40
0.0919863859084614
100
AcDbArc
 50
229.6728378218865
 51
268.5099295097302
  0
LINE
  5
3356
330
A
100
AcDbEntity
  8
001
  6
PHANTOM
370
     0
100
AcDbLine
 10
-128.4071793726049
 20
41.54857008828698
 30
0.0
 11
-128.4072483494592
 21
41.54850111453723
 31
0.0
  0
LINE
  5
3357
330
A
100
AcDbEntity
  8
001
  6
PHANTOM
370
     0
100
AcDbLine
 10
-128.4072483494592
 20
41.54850111453723
 30
0.0
 11
-128.4073146720442
 21
41.54843478574322
 31
0.0
  0
LINE
  5
3358
330
A
100
AcDbEntity
  8
001
  6
PHANTOM
370
     0
100
AcDbLine
 10
-128.4073146720442
 20
41.54843478574322
 30
0.0
 11
-128.4073757978492
 21
41.54837366614723
 31
0.0
  0
LINE
  5
3359
330
A
100
AcDbEntity
  8
001
  6
PHANTOM
370
     0
100
AcDbLine
 10
-128.4073757978492
 20
41.54837366614723
 30
0.0
 11
-128.4074293737324
 21
41.54832009026398
 31
0.0
  0
LINE
  5
335A
330
A
100
AcDbEntity
  8
001
  6
PHANTOM
370
     0
100
AcDbLine
 10
-128.4074293737324
 20
41.54832009026398
 30
0.0
 11
-128.4074733414712
 21
41.54827611942073
 31
0.0
  0
LINE
  5
335B
330
A
100
AcDbEntity
  8
001
  6
PHANTOM
370
     0
100
AcDbLine
 10
-128.4074733414712
 20
41.54827611942073
 30
0.0
 11
-128.4075060153714
 21
41.54824344862472
 31
0.0
  0
LINE
  5
335C
330
A
100
AcDbEntity
  8
001
  6
PHANTOM
370
     0
100
AcDbLine
 10
-128.4075060153714
 20
41.54824344862472
 30
0.0
 11
-128.4075261319392
 21
41.54822332584847
 31
0.0
  0
LINE
  5
335D
330
A
100
AcDbEntity
  8
001
  6
PHANTOM
370
     0
100
AcDbLine
 10
-128.4075261319392
 20
41.54822332584847
 30
0.0
 11
-128.4075329274894
 21
41.54821653340248
 31
0.0
  0
LINE
  5
335E
330
A
100
AcDbEntity
  8
001
  6
PHANTOM
370
     0
100
AcDbLine
 10
-128.4203786970141
 20
41.56978329133472
 30
0.0
 11
-128.4203097232642
 21
41.56985226508448
 31
0.0
  0
LINE
  5
335F
330
A
100
AcDbEntity
  8
001
  6
PHANTOM
370
     0
100
AcDbLine
 10
-128.4203097232642
 20
41.56985226508448
 30
0.0
 11
-128.4202434006792
 21
41.56991859077398
 31
0.0
  0
LINE
  5
3360
330
A
100
AcDbEntity
  8
001
  6
PHANTOM
370
     0
100
AcDbLine
 10
-128.4202434006792
 20
41.56991859077398
 30
0.0
 11
-128.4201822748742
 21
41.56997971347448
 31
0.0
  0
LINE
  5
3361
330
A
100
AcDbEntity
  8
001
  6
PHANTOM
370
     0
100
AcDbLine
 10
-128.4201822748742
 20
41.56997971347448
 30
0.0
 11
-128.4201286989909
 21
41.57003329246222
 31
0.0
  0
LINE
  5
3362
330
A
100
AcDbEntity
  8
001
  6
PHANTOM
370
     0
100
AcDbLine
 10
-128.4201286989909
 20
41.57003329246222
 30
0.0
 11
-128.4200847281479
 21
41.57007726020097
 31
0.0
  0
LINE
  5
3363
330
A
100
AcDbEntity
  8
001
  6
PHANTOM
370
     0
100
AcDbLine
 10
-128.4200847281479
 20
41.57007726020097
 30
0.0
 11
-128.4200520573519
 21
41.57010993099698
 31
0.0
  0
LINE
  5
3364
330
A
100
AcDbEntity
  8
001
  6
PHANTOM
370
     0
100
AcDbLine
 10
-128.4200520573519
 20
41.57010993099698
 30
0.0
 11
-128.4200319407842
 21
41.57013005066898
 31
0.0
  0
LINE
  5
3365
330
A
100
AcDbEntity
  8
001
  6
PHANTOM
370
     0
100
AcDbLine
 10
-128.4200319407842
 20
41.57013005066898
 30
0.0
 11
-128.4200251483384
 21
41.57013684311498
 31
0.0
  0
LINE
  5
3366
330
A
100
AcDbEntity
  8
001
  6
PHANTOM
370
     0
100
AcDbLine
 10
-128.4031724348379
 20
41.55257702915847
 30
0.0
 11
-128.4031034610879
 21
41.55264600290823
 31
0.0
  0
LINE
  5
3367
330
A
100
AcDbEntity
  8
001
  6
PHANTOM
370
     0
100
AcDbLine
 10
-128.4031034610879
 20
41.55264600290823
 30
0.0
 11
-128.4030371353987
 21
41.55271232549322
 31
0.0
  0
LINE
  5
3368
330
A
100
AcDbEntity
  8
001
  6
PHANTOM
370
     0
100
AcDbLine
 10
-128.4030371353987
 20
41.55271232549322
 30
0.0
 11
-128.4029760126979
 21
41.55277345129823
 31
0.0
  0
LINE
  5
3369
330
A
100
AcDbEntity
  8
001
  6
PHANTOM
370
     0
100
AcDbLine
 10
-128.4029760126979
 20
41.55277345129823
 30
0.0
 11
-128.4029224337104
 21
41.55282702718148
 31
0.0
  0
LINE
  5
336A
330
A
100
AcDbEntity
  8
001
  6
PHANTOM
370
     0
100
AcDbLine
 10
-128.4029224337104
 20
41.55282702718148
 30
0.0
 11
-128.4028784659717
 21
41.55287099802473
 31
0.0
  0
LINE
  5
336B
330
A
100
AcDbEntity
  8
001
  6
PHANTOM
370
     0
100
AcDbLine
 10
-128.4028784659717
 20
41.55287099802473
 30
0.0
 11
-128.4028457951757
 21
41.55290366882073
 31
0.0
  0
LINE
  5
336C
330
A
100
AcDbEntity
  8
001
  6
PHANTOM
370
     0
100
AcDbLine
 10
-128.4028457951757
 20
41.55290366882073
 30
0.0
 11
-128.4028256755037
 21
41.55292378538823
 31
0.0
  0
LINE
  5
336D
330
A
100
AcDbEntity
  8
001
  6
PHANTOM
370
     0
100
AcDbLine
 10
-128.4028256755037
 20
41.55292378538823
 30
0.0
 11
-128.4028188830577
 21
41.55293057783422
 31
0.0
  0
LINE
  5
336E
330
A
100
AcDbEntity
  8
001
  6
PHANTOM
370
     0
100
AcDbLine
 10
-128.4247391927701
 20
41.56542279868298
 30
0.0
 11
-128.4247324003242
 21
41.56542959423347
 31
0.0
  0
LINE
  5
336F
330
A
100
AcDbEntity
  8
001
  6
PHANTOM
370
     0
100
AcDbLine
 10
-128.4247324003242
 20
41.56542959423347
 30
0.0
 11
-128.4247122775477
 21
41.56544971080097
 31
0.0
  0
LINE
  5
3370
330
A
100
AcDbEntity
  8
001
  6
PHANTOM
370
     0
100
AcDbLine
 10
-128.4247122775477
 20
41.56544971080097
 30
0.0
 11
-128.4246796067519
 21
41.56548238470147
 31
0.0
  0
LINE
  5
3371
330
A
100
AcDbEntity
  8
001
  6
PHANTOM
370
     0
100
AcDbLine
 10
-128.4246796067519
 20
41.56548238470147
 30
0.0
 11
-128.4246356359087
 21
41.56552635244023
 31
0.0
  0
LINE
  5
3372
330
A
100
AcDbEntity
  8
001
  6
PHANTOM
370
     0
100
AcDbLine
 10
-128.4246356359087
 20
41.56552635244023
 30
0.0
 11
-128.4245820600254
 21
41.56557992832348
 31
0.0
  0
LINE
  5
3373
330
A
100
AcDbEntity
  8
001
  6
PHANTOM
370
     0
100
AcDbLine
 10
-128.4245820600254
 20
41.56557992832348
 30
0.0
 11
-128.4245209404291
 21
41.56564105412847
 31
0.0
  0
LINE
  5
3374
330
A
100
AcDbEntity
  8
001
  6
PHANTOM
370
     0
100
AcDbLine
 10
-128.4245209404291
 20
41.56564105412847
 30
0.0
 11
-128.4244546116354
 21
41.56570737671322
 31
0.0
  0
LINE
  5
3375
330
A
100
AcDbEntity
  8
001
  6
PHANTOM
370
     0
100
AcDbLine
 10
-128.4244546116354
 20
41.56570737671322
 30
0.0
 11
-128.4243856378857
 21
41.56577635356772
 31
0.0
  0
LINE
  5
3376
330
A
100
AcDbEntity
  8
001
  6
PHANTOM
370
     0
100
AcDbLine
 10
-128.4114220125937
 20
41.54432744829822
 30
0.0
 11
-128.4113530388437
 21
41.54439642204823
 31
0.0
  0
LINE
  5
3377
330
A
100
AcDbEntity
  8
001
  6
PHANTOM
370
     0
100
AcDbLine
 10
-128.4113530388437
 20
41.54439642204823
 30
0.0
 11
-128.4112867162586
 21
41.54446274463323
 31
0.0
  0
LINE
  5
3378
330
A
100
AcDbEntity
  8
001
  6
PHANTOM
370
     0
100
AcDbLine
 10
-128.4112867162586
 20
41.54446274463323
 30
0.0
 11
-128.4112255904537
 21
41.54452387043822
 31
0.0
  0
LINE
  5
3379
330
A
100
AcDbEntity
  8
001
  6
PHANTOM
370
     0
100
AcDbLine
 10
-128.4112255904537
 20
41.54452387043822
 30
0.0
 11
-128.4111720145704
 21
41.54457744632147
 31
0.0
  0
LINE
  5
337A
330
A
100
AcDbEntity
  8
001
  6
PHANTOM
370
     0
100
AcDbLine
 10
-128.4111720145704
 20
41.54457744632147
 30
0.0
 11
-128.4111280437274
 21
41.54462141716448
 31
0.0
  0
LINE
  5
337B
330
A
100
AcDbEntity
  8
001
  6
PHANTOM
370
     0
100
AcDbLine
 10
-128.4111280437274
 20
41.54462141716448
 30
0.0
 11
-128.4110953729314
 21
41.54465408796048
 31
0.0
  0
LINE
  5
337C
330
A
100
AcDbEntity
  8
001
  6
PHANTOM
370
     0
100
AcDbLine
 10
-128.4110953729314
 20
41.54465408796048
 30
0.0
 11
-128.4110752532594
 21
41.54467420452823
 31
0.0
  0
LINE
  5
337D
330
A
100
AcDbEntity
  8
001
  6
PHANTOM
370
     0
100
AcDbLine
 10
-128.4110752532594
 20
41.54467420452823
 30
0.0
 11
-128.4110684608134
 21
41.54468100318298
 31
0.0
  0
LINE
  5
337E
330
A
100
AcDbEntity
  8
001
  6
PHANTOM
370
     0
100
AcDbLine
 10
-128.4286282778742
 20
41.56153371357897
 30
0.0
 11
-128.4285593041244
 21
41.56160268732873
 31
0.0
  0
LINE
  5
337F
330
A
100
AcDbEntity
  8
001
  6
PHANTOM
370
     0
100
AcDbLine
 10
-128.4285593041244
 20
41.56160268732873
 30
0.0
 11
-128.4284929815394
 21
41.56166900991372
 31
0.0
  0
LINE
  5
3380
330
A
100
AcDbEntity
  8
001
  6
PHANTOM
370
     0
100
AcDbLine
 10
-128.4284929815394
 20
41.56166900991372
 30
0.0
 11
-128.4284318557344
 21
41.56173013571872
 31
0.0
  0
LINE
  5
3381
330
A
100
AcDbEntity
  8
001
  6
PHANTOM
370
     0
100
AcDbLine
 10
-128.4284318557344
 20
41.56173013571872
 30
0.0
 11
-128.4283782798512
 21
41.56178371160197
 31
0.0
  0
LINE
  5
3382
330
A
100
AcDbEntity
  8
001
  6
PHANTOM
370
     0
100
AcDbLine
 10
-128.4283782798512
 20
41.56178371160197
 30
0.0
 11
-128.4283343090079
 21
41.56182768244522
 31
0.0
  0
LINE
  5
3383
330
A
100
AcDbEntity
  8
001
  6
PHANTOM
370
     0
100
AcDbLine
 10
-128.4283343090079
 20
41.56182768244522
 30
0.0
 11
-128.4283016382119
 21
41.56186035324123
 31
0.0
  0
LINE
  5
3384
330
A
100
AcDbEntity
  8
001
  6
PHANTOM
370
     0
100
AcDbLine
 10
-128.4283016382119
 20
41.56186035324123
 30
0.0
 11
-128.4282815216444
 21
41.56188047291323
 31
0.0
  0
LINE
  5
3385
330
A
100
AcDbEntity
  8
001
  6
PHANTOM
370
     0
100
AcDbLine
 10
-128.4282815216444
 20
41.56188047291323
 30
0.0
 11
-128.4282747229897
 21
41.56188726535922
 31
0.0
  0
LINE
  5
3386
330
A
100
AcDbEntity
  8
001
  6
PHANTOM
370
     0
100
AcDbLine
 10
-128.4161360601299
 20
41.57402593132347
 30
0.0
 11
-128.4162050338797
 21
41.57395695757347
 31
0.0
  0
LINE
  5
3387
330
A
100
AcDbEntity
  8
001
  6
PHANTOM
370
     0
100
AcDbLine
 10
-128.4162050338797
 20
41.57395695757347
 30
0.0
 11
-128.4162713595692
 21
41.57389063188422
 31
0.0
  0
LINE
  5
3388
330
A
100
AcDbEntity
  8
001
  6
PHANTOM
370
     0
100
AcDbLine
 10
-128.4162713595692
 20
41.57389063188422
 30
0.0
 11
-128.4163324822697
 21
41.57382950918347
 31
0.0
  0
LINE
  5
3389
330
A
100
AcDbEntity
  8
001
  6
PHANTOM
370
     0
100
AcDbLine
 10
-128.4163324822697
 20
41.57382950918347
 30
0.0
 11
-128.4163860612574
 21
41.57377593330022
 31
0.0
  0
LINE
  5
338A
330
A
100
AcDbEntity
  8
001
  6
PHANTOM
370
     0
100
AcDbLine
 10
-128.4163860612574
 20
41.57377593330022
 30
0.0
 11
-128.4164300258917
 21
41.57373196245697
 31
0.0
  0
LINE
  5
338B
330
A
100
AcDbEntity
  8
001
  6
PHANTOM
370
     0
100
AcDbLine
 10
-128.4164300258917
 20
41.57373196245697
 30
0.0
 11
-128.4164627028964
 21
41.57369929166122
 31
0.0
  0
LINE
  5
338C
330
A
100
AcDbEntity
  8
001
  6
PHANTOM
370
     0
100
AcDbLine
 10
-128.4164627028964
 20
41.57369929166122
 30
0.0
 11
-128.4164828194639
 21
41.57367917198922
 31
0.0
  0
LINE
  5
338D
330
A
100
AcDbEntity
  8
001
  6
PHANTOM
370
     0
100
AcDbLine
 10
-128.4164828194639
 20
41.57367917198922
 30
0.0
 11
-128.4164896119099
 21
41.57367237954322
 31
0.0
  0
LINE
  5
338E
330
A
100
AcDbEntity
  8
001
  6
PHANTOM
370
     0
100
AcDbLine
 10
-128.3989297948492
 20
41.55681966604272
 30
0.0
 11
-128.3989987685991
 21
41.55675069229273
 31
0.0
  0
LINE
  5
338F
330
A
100
AcDbEntity
  8
001
  6
PHANTOM
370
     0
100
AcDbLine
 10
-128.3989987685991
 20
41.55675069229273
 30
0.0
 11
-128.3990650942884
 21
41.55668436660348
 31
0.0
  0
LINE
  5
3390
330
A
100
AcDbEntity
  8
001
  6
PHANTOM
370
     0
100
AcDbLine
 10
-128.3990650942884
 20
41.55668436660348
 30
0.0
 11
-128.3991262169889
 21
41.55662324390298
 31
0.0
  0
LINE
  5
3391
330
A
100
AcDbEntity
  8
001
  6
PHANTOM
370
     0
100
AcDbLine
 10
-128.3991262169889
 20
41.55662324390298
 30
0.0
 11
-128.3991797928724
 21
41.55656966491522
 31
0.0
  0
LINE
  5
3392
330
A
100
AcDbEntity
  8
001
  6
PHANTOM
370
     0
100
AcDbLine
 10
-128.3991797928724
 20
41.55656966491522
 30
0.0
 11
-128.3992237637154
 21
41.55652570028098
 31
0.0
  0
LINE
  5
3393
330
A
100
AcDbEntity
  8
001
  6
PHANTOM
370
     0
100
AcDbLine
 10
-128.3992237637154
 20
41.55652570028098
 30
0.0
 11
-128.3992564345114
 21
41.55649302327622
 31
0.0
  0
LINE
  5
3394
330
A
100
AcDbEntity
  8
001
  6
PHANTOM
370
     0
100
AcDbLine
 10
-128.3992564345114
 20
41.55649302327622
 30
0.0
 11
-128.3992765541834
 21
41.55647290670848
 31
0.0
  0
LINE
  5
3395
330
A
100
AcDbEntity
  8
001
  6
PHANTOM
370
     0
100
AcDbLine
 10
-128.3992765541834
 20
41.55647290670848
 30
0.0
 11
-128.3992833466294
 21
41.55646611426248
 31
0.0
  0
LINE
  5
3396
330
A
100
AcDbEntity
  8
001
  6
PHANTOM
370
     0
100
AcDbLine
 10
-128.4114220125937
 20
41.55281272827572
 30
0.0
 11
-128.4111654456419
 21
41.55255616132397
 31
0.0
  0
LINE
  5
3397
330
A
100
AcDbEntity
  8
001
  6
PHANTOM
370
     0
100
AcDbLine
 10
-128.4111654456419
 20
41.55255616132397
 30
0.0
 11
-128.4109119241152
 21
41.55230263669273
 31
0.0
  0
LINE
  5
3398
330
A
100
AcDbEntity
  8
001
  6
PHANTOM
370
     0
100
AcDbLine
 10
-128.4109119241152
 20
41.55230263669273
 30
0.0
 11
-128.4106644654982
 21
41.55205517807572
 31
0.0
  0
LINE
  5
3399
330
A
100
AcDbEntity
  8
001
  6
PHANTOM
370
     0
100
AcDbLine
 10
-128.4106644654982
 20
41.55205517807572
 30
0.0
 11
-128.4104260096662
 21
41.55181672224372
 31
0.0
  0
LINE
  5
339A
330
A
100
AcDbEntity
  8
001
  6
PHANTOM
370
     0
100
AcDbLine
 10
-128.4104260096662
 20
41.55181672224372
 30
0.0
 11
-128.4101993909442
 21
41.55159010662623
 31
0.0
  0
LINE
  5
339B
330
A
100
AcDbEntity
  8
001
  6
PHANTOM
370
     0
100
AcDbLine
 10
-128.4101993909442
 20
41.55159010662623
 30
0.0
 11
-128.4099873039586
 21
41.55137801964072
 31
0.0
  0
LINE
  5
339C
330
A
100
AcDbEntity
  8
001
  6
PHANTOM
370
     0
100
AcDbLine
 10
-128.4099873039586
 20
41.55137801964072
 30
0.0
 11
-128.4097922663849
 21
41.55118298206697
 31
0.0
  0
LINE
  5
339D
330
A
100
AcDbEntity
  8
001
  6
PHANTOM
370
     0
100
AcDbLine
 10
-128.4097922663849
 20
41.55118298206697
 30
0.0
 11
-128.4096165941122
 21
41.55100730979422
 31
0.0
  0
LINE
  5
339E
330
A
100
AcDbEntity
  8
001
  6
PHANTOM
370
     0
100
AcDbLine
 10
-128.4114220125937
 20
41.55281272827572
 30
0.0
 11
-128.4114909894479
 21
41.55274375452573
 31
0.0
  0
LINE
  5
339F
330
A
100
AcDbEntity
  8
001
  6
PHANTOM
370
     0
100
AcDbLine
 10
-128.4114909894479
 20
41.55274375452573
 30
0.0
 11
-128.4115573120329
 21
41.55267743194072
 31
0.0
  0
LINE
  5
33A0
330
A
100
AcDbEntity
  8
001
  6
PHANTOM
370
     0
100
AcDbLine
 10
-128.4115573120329
 20
41.55267743194072
 30
0.0
 11
-128.4116184378377
 21
41.55261630613572
 31
0.0
  0
LINE
  5
33A1
330
A
100
AcDbEntity
  8
001
  6
PHANTOM
370
     0
100
AcDbLine
 10
-128.4116184378377
 20
41.55261630613572
 30
0.0
 11
-128.4116720137212
 21
41.55256273025247
 31
0.0
  0
LINE
  5
33A2
330
A
100
AcDbEntity
  8
001
  6
PHANTOM
370
     0
100
AcDbLine
 10
-128.4116720137212
 20
41.55256273025247
 30
0.0
 11
-128.4117159845642
 21
41.55251875940948
 31
0.0
  0
LINE
  5
33A3
330
A
100
AcDbEntity
  8
001
  6
PHANTOM
370
     0
100
AcDbLine
 10
-128.4117159845642
 20
41.55251875940948
 30
0.0
 11
-128.4117486553602
 21
41.55248608861348
 31
0.0
  0
LINE
  5
33A4
330
A
100
AcDbEntity
  8
001
  6
PHANTOM
370
     0
100
AcDbLine
 10
-128.4117486553602
 20
41.55248608861348
 30
0.0
 11
-128.4117687750322
 21
41.55246596583697
 31
0.0
  0
LINE
  5
33A5
330
A
100
AcDbEntity
  8
001
  6
PHANTOM
370
     0
100
AcDbLine
 10
-128.4117687750322
 20
41.55246596583697
 30
0.0
 11
-128.4117755674782
 21
41.55245917339097
 31
0.0
  0
LINE
  5
33A6
330
A
100
AcDbEntity
  8
001
  6
PHANTOM
370
     0
100
AcDbLine
 10
-128.4161360601299
 20
41.56554065134598
 30
0.0
 11
-128.4163926301859
 21
41.56579722140222
 31
0.0
  0
LINE
  5
33A7
330
A
100
AcDbEntity
  8
001
  6
PHANTOM
370
     0
100
AcDbLine
 10
-128.4163926301859
 20
41.56579722140222
 30
0.0
 11
-128.4166461486084
 21
41.56605073982447
 31
0.0
  0
LINE
  5
33A8
330
A
100
AcDbEntity
  8
001
  6
PHANTOM
370
     0
100
AcDbLine
 10
-128.4166461486084
 20
41.56605073982447
 30
0.0
 11
-128.4168936072252
 21
41.56629819844147
 31
0.0
  0
LINE
  5
33A9
330
A
100
AcDbEntity
  8
001
  6
PHANTOM
370
     0
100
AcDbLine
 10
-128.4168936072252
 20
41.56629819844147
 30
0.0
 11
-128.4171320630572
 21
41.56653665427348
 31
0.0
  0
LINE
  5
33AA
330
A
100
AcDbEntity
  8
001
  6
PHANTOM
370
     0
100
AcDbLine
 10
-128.4171320630572
 20
41.56653665427348
 30
0.0
 11
-128.4173586848837
 21
41.56676327299548
 31
0.0
  0
LINE
  5
33AB
330
A
100
AcDbEntity
  8
001
  6
PHANTOM
370
     0
100
AcDbLine
 10
-128.4173586848837
 20
41.56676327299548
 30
0.0
 11
-128.4175707718692
 21
41.56697536308548
 31
0.0
  0
LINE
  5
33AC
330
A
100
AcDbEntity
  8
001
  6
PHANTOM
370
     0
100
AcDbLine
 10
-128.4175707718692
 20
41.56697536308548
 30
0.0
 11
-128.4177658094429
 21
41.56717040065898
 31
0.0
  0
LINE
  5
33AD
330
A
100
AcDbEntity
  8
001
  6
PHANTOM
370
     0
100
AcDbLine
 10
-128.4177658094429
 20
41.56717040065898
 30
0.0
 11
-128.4179414755069
 21
41.56734606982747
 31
0.0
  0
LINE
  5
33AE
330
A
100
AcDbEntity
  8
001
  6
PHANTOM
370
     0
100
AcDbLine
 10
-128.4161360601299
 20
41.56554065134598
 30
0.0
 11
-128.4160670832754
 21
41.56560962509598
 31
0.0
  0
LINE
  5
33AF
330
A
100
AcDbEntity
  8
001
  6
PHANTOM
370
     0
100
AcDbLine
 10
-128.4160670832754
 20
41.56560962509598
 30
0.0
 11
-128.4160007606907
 21
41.56567595078523
 31
0.0
  0
LINE
  5
33B0
330
A
100
AcDbEntity
  8
001
  6
PHANTOM
370
     0
100
AcDbLine
 10
-128.4160007606907
 20
41.56567595078523
 30
0.0
 11
-128.4159396348857
 21
41.56573707348573
 31
0.0
  0
LINE
  5
33B1
330
A
100
AcDbEntity
  8
001
  6
PHANTOM
370
     0
100
AcDbLine
 10
-128.4159396348857
 20
41.56573707348573
 30
0.0
 11
-128.4158860590024
 21
41.56579064936923
 31
0.0
  0
LINE
  5
33B2
330
A
100
AcDbEntity
  8
001
  6
PHANTOM
370
     0
100
AcDbLine
 10
-128.4158860590024
 20
41.56579064936923
 30
0.0
 11
-128.4158420912637
 21
41.56583462021223
 31
0.0
  0
LINE
  5
33B3
330
A
100
AcDbEntity
  8
001
  6
PHANTOM
370
     0
100
AcDbLine
 10
-128.4158420912637
 20
41.56583462021223
 30
0.0
 11
-128.4158094173632
 21
41.56586729100822
 31
0.0
  0
LINE
  5
33B4
330
A
100
AcDbEntity
  8
001
  6
PHANTOM
370
     0
100
AcDbLine
 10
-128.4158094173632
 20
41.56586729100822
 30
0.0
 11
-128.4157893007957
 21
41.56588741068023
 31
0.0
  0
LINE
  5
33B5
330
A
100
AcDbEntity
  8
001
  6
PHANTOM
370
     0
100
AcDbLine
 10
-128.4157893007957
 20
41.56588741068023
 30
0.0
 11
-128.4157825052452
 21
41.56589420312623
 31
0.0
  0
LINE
  5
33B6
330
A
100
AcDbEntity
  8
001
  6
PHANTOM
370
     0
100
AcDbLine
 10
-128.4204965527814
 20
41.56118015869448
 30
0.0
 11
-128.4204897603354
 21
41.56118695114048
 31
0.0
  0
LINE
  5
33B7
330
A
100
AcDbEntity
  8
001
  6
PHANTOM
370
     0
100
AcDbLine
 10
-128.4204897603354
 20
41.56118695114048
 30
0.0
 11
-128.4204696375592
 21
41.56120707081248
 31
0.0
  0
LINE
  5
33B8
330
A
100
AcDbEntity
  8
001
  6
PHANTOM
370
     0
100
AcDbLine
 10
-128.4204696375592
 20
41.56120707081248
 30
0.0
 11
-128.4204369667632
 21
41.56123974160823
 31
0.0
  0
LINE
  5
33B9
330
A
100
AcDbEntity
  8
001
  6
PHANTOM
370
     0
100
AcDbLine
 10
-128.4204369667632
 20
41.56123974160823
 30
0.0
 11
-128.4203929959199
 21
41.56128371245148
 31
0.0
  0
LINE
  5
33BA
330
A
100
AcDbEntity
  8
001
  6
PHANTOM
370
     0
100
AcDbLine
 10
-128.4203929959199
 20
41.56128371245148
 30
0.0
 11
-128.4203394200367
 21
41.56133728833473
 31
0.0
  0
LINE
  5
33BB
330
A
100
AcDbEntity
  8
001
  6
PHANTOM
370
     0
100
AcDbLine
 10
-128.4203394200367
 20
41.56133728833473
 30
0.0
 11
-128.4202782942317
 21
41.56139841413973
 31
0.0
  0
LINE
  5
33BC
330
A
100
AcDbEntity
  8
001
  6
PHANTOM
370
     0
100
AcDbLine
 10
-128.4202782942317
 20
41.56139841413973
 30
0.0
 11
-128.4202119716467
 21
41.56146473672473
 31
0.0
  0
LINE
  5
33BD
330
A
100
AcDbEntity
  8
001
  6
PHANTOM
370
     0
100
AcDbLine
 10
-128.4202119716467
 20
41.56146473672473
 30
0.0
 11
-128.4201429978969
 21
41.56153371357897
 31
0.0
  0
LINE
  5
33BE
330
A
100
AcDbEntity
  8
001
  6
PHANTOM
370
     0
100
AcDbLine
 10
-128.4219484163784
 20
41.56333913206047
 30
0.0
 11
-128.4217727441054
 21
41.56316345978747
 31
0.0
  0
LINE
  5
33BF
330
A
100
AcDbEntity
  8
001
  6
PHANTOM
370
     0
100
AcDbLine
 10
-128.4217727441054
 20
41.56316345978747
 30
0.0
 11
-128.4215777065319
 21
41.56296842221397
 31
0.0
  0
LINE
  5
33C0
330
A
100
AcDbEntity
  8
001
  6
PHANTOM
370
     0
100
AcDbLine
 10
-128.4215777065319
 20
41.56296842221397
 30
0.0
 11
-128.4213656195464
 21
41.56275633522848
 31
0.0
  0
LINE
  5
33C1
330
A
100
AcDbEntity
  8
001
  6
PHANTOM
370
     0
100
AcDbLine
 10
-128.4213656195464
 20
41.56275633522848
 30
0.0
 11
-128.4211390039287
 21
41.56252971650647
 31
0.0
  0
LINE
  5
33C2
330
A
100
AcDbEntity
  8
001
  6
PHANTOM
370
     0
100
AcDbLine
 10
-128.4211390039287
 20
41.56252971650647
 30
0.0
 11
-128.4209005480967
 21
41.56229126067447
 31
0.0
  0
LINE
  5
33C3
330
A
100
AcDbEntity
  8
001
  6
PHANTOM
370
     0
100
AcDbLine
 10
-128.4209005480967
 20
41.56229126067447
 30
0.0
 11
-128.4206530894799
 21
41.56204380205748
 31
0.0
  0
LINE
  5
33C4
330
A
100
AcDbEntity
  8
001
  6
PHANTOM
370
     0
100
AcDbLine
 10
-128.4206530894799
 20
41.56204380205748
 30
0.0
 11
-128.4203995648487
 21
41.56179028053073
 31
0.0
  0
LINE
  5
33C5
330
A
100
AcDbEntity
  8
001
  6
PHANTOM
370
     0
100
AcDbLine
 10
-128.4203995648487
 20
41.56179028053073
 30
0.0
 11
-128.4201429978969
 21
41.56153371357897
 31
0.0
  0
LINE
  5
33C6
330
A
100
AcDbEntity
  8
001
  6
PHANTOM
370
     0
100
AcDbLine
 10
-128.4070615230464
 20
41.55717322092722
 30
0.0
 11
-128.4070683154924
 21
41.55716642537697
 31
0.0
  0
LINE
  5
33C7
330
A
100
AcDbEntity
  8
001
  6
PHANTOM
370
     0
100
AcDbLine
 10
-128.4070683154924
 20
41.55716642537697
 30
0.0
 11
-128.4070884351644
 21
41.55714630880923
 31
0.0
  0
LINE
  5
33C8
330
A
100
AcDbEntity
  8
001
  6
PHANTOM
370
     0
100
AcDbLine
 10
-128.4070884351644
 20
41.55714630880923
 30
0.0
 11
-128.4071211059602
 21
41.55711363490897
 31
0.0
  0
LINE
  5
33C9
330
A
100
AcDbEntity
  8
001
  6
PHANTOM
370
     0
100
AcDbLine
 10
-128.4071211059602
 20
41.55711363490897
 30
0.0
 11
-128.4071650768034
 21
41.55706966717022
 31
0.0
  0
LINE
  5
33CA
330
A
100
AcDbEntity
  8
001
  6
PHANTOM
370
     0
100
AcDbLine
 10
-128.4071650768034
 20
41.55706966717022
 30
0.0
 11
-128.4072186526867
 21
41.55701609128697
 31
0.0
  0
LINE
  5
33CB
330
A
100
AcDbEntity
  8
001
  6
PHANTOM
370
     0
100
AcDbLine
 10
-128.4072186526867
 20
41.55701609128697
 30
0.0
 11
-128.4072797753872
 21
41.55695496548197
 31
0.0
  0
LINE
  5
33CC
330
A
100
AcDbEntity
  8
001
  6
PHANTOM
370
     0
100
AcDbLine
 10
-128.4072797753872
 20
41.55695496548197
 30
0.0
 11
-128.4073461010767
 21
41.55688864289698
 31
0.0
  0
LINE
  5
33CD
330
A
100
AcDbEntity
  8
001
  6
PHANTOM
370
     0
100
AcDbLine
 10
-128.4073461010767
 20
41.55688864289698
 30
0.0
 11
-128.4074150748264
 21
41.55681966604272
 31
0.0
  0
LINE
  5
33CE
330
A
100
AcDbEntity
  8
001
  6
PHANTOM
370
     0
100
AcDbLine
 10
-128.4056096563451
 20
41.55501425066573
 30
0.0
 11
-128.4057853255134
 21
41.55518991672972
 31
0.0
  0
LINE
  5
33CF
330
A
100
AcDbEntity
  8
001
  6
PHANTOM
370
     0
100
AcDbLine
 10
-128.4057853255134
 20
41.55518991672972
 30
0.0
 11
-128.4059803630872
 21
41.55538495430323
 31
0.0
  0
LINE
  5
33D0
330
A
100
AcDbEntity
  8
001
  6
PHANTOM
370
     0
100
AcDbLine
 10
-128.4059803630872
 20
41.55538495430323
 30
0.0
 11
-128.4061924531769
 21
41.55559704128872
 31
0.0
  0
LINE
  5
33D1
330
A
100
AcDbEntity
  8
001
  6
PHANTOM
370
     0
100
AcDbLine
 10
-128.4061924531769
 20
41.55559704128872
 30
0.0
 11
-128.4064190718992
 21
41.55582366311523
 31
0.0
  0
LINE
  5
33D2
330
A
100
AcDbEntity
  8
001
  6
PHANTOM
370
     0
100
AcDbLine
 10
-128.4064190718992
 20
41.55582366311523
 30
0.0
 11
-128.4066575277312
 21
41.55606211894722
 31
0.0
  0
LINE
  5
33D3
330
A
100
AcDbEntity
  8
001
  6
PHANTOM
370
     0
100
AcDbLine
 10
-128.4066575277312
 20
41.55606211894722
 30
0.0
 11
-128.4069049863479
 21
41.55630957756422
 31
0.0
  0
LINE
  5
33D4
330
A
100
AcDbEntity
  8
001
  6
PHANTOM
370
     0
100
AcDbLine
 10
-128.4069049863479
 20
41.55630957756422
 30
0.0
 11
-128.4071585047704
 21
41.55656309598672
 31
0.0
  0
LINE
  5
33D5
330
A
100
AcDbEntity
  8
001
  6
PHANTOM
370
     0
100
AcDbLine
 10
-128.4071585047704
 20
41.55656309598672
 30
0.0
 11
-128.4074150748264
 21
41.55681966604272
 31
0.0
  0
TEXT
  5
3428
330
A
100
AcDbEntity
  8
001
  6
Continuous
100
AcDbText
 10
-128.4438173395039
 20
41.62178092721505
 30
0.0
 40
0.0232799810762421
  1
42
 50
45.00000000000008
 41
0.6
 72
     1
 11
-128.4355866232614
 21
41.6300116434575
 31
0.0
100
AcDbText
  0
LINE
  5
3429
330
A
100
AcDbEntity
  8
001
100
AcDbLine
 10
-128.4069764779647
 20
41.65136908000447
 30
0.0
 11
-128.4146036583014
 21
41.64602811533153
 31
0.0
  0
LINE
  5
342A
330
A
100
AcDbEntity
  8
001
100
AcDbLine
 10
-128.4564739526477
 20
41.60187160532148
 30
0.0
 11
-128.4069764779647
 21
41.65136908000447
 31
0.0
  0
LINE
  5
342B
330
A
100
AcDbEntity
  8
001
100
AcDbLine
 10
-128.4069764779647
 20
41.65136908000447
 30
0.0
 11
-128.412316872509
 21
41.64374132953912
 31
0.0
  0
LINE
  5
342C
330
A
100
AcDbEntity
  8
001
100
AcDbLine
 10
-128.4564739526477
 20
41.60187160532148
 30
0.0
 11
-128.4488462021823
 21
41.60721199986584
 31
0.0
  0
LINE
  5
342D
330
A
100
AcDbEntity
  8
001
100
AcDbLine
 10
-128.4564739526477
 20
41.60187160532148
 30
0.0
 11
-128.4511329879747
 21
41.60949878565824
 31
0.0
  0
LINE
  5
342E
330
A
100
AcDbEntity
  8
001
  6
ByBlock
370
    -2
100
AcDbLine
 10
-128.429325759319
 20
41.54362996685338
 30
0.0
 11
-128.4224463607441
 21
41.54002962829371
 31
0.0
  0
LINE
  5
342F
330
A
100
AcDbEntity
  8
001
  6
ByBlock
370
    -2
100
AcDbLine
 10
-128.429325759319
 20
41.54362996685338
 30
0.0
 11
-128.4238101264457
 21
41.53854786158031
 31
0.0
  0
LINE
  5
3430
330
A
100
AcDbEntity
  8
001
  6
ByBlock
370
    -2
100
AcDbLine
 10
-128.4251681923155
 20
41.53707228440395
 30
0.0
 11
-128.429325759319
 21
41.54362996685338
 31
0.0
  0
LINE
  5
3431
330
A
100
AcDbEntity
  8
001
  6
ByBlock
370
    -2
100
AcDbLine
 10
-128.3642815620664
 20
41.51659011485133
 30
0.0
 11
-128.3718787461757
 21
41.51498656999524
 31
0.0
  0
LINE
  5
3432
330
A
100
AcDbEntity
  8
001
  6
ByBlock
370
    -2
100
AcDbLine
 10
-128.3642815620664
 20
41.51659011485133
 30
0.0
 11
-128.3666735488787
 21
41.51671888371629
 31
0.0
  0
LINE
  5
3433
330
A
100
AcDbEntity
  8
001
  6
ByBlock
370
    -2
100
AcDbLine
 10
-128.3716626897957
 20
41.51899999367409
 30
0.0
 11
-128.3642815620664
 21
41.51659011485133
 31
0.0
  0
TEXT
  5
3434
330
A
100
AcDbEntity
  8
001
  6
Continuous
100
AcDbText
 10
-128.4389411552678
 20
41.51951290504083
 30
0.0
 40
0.0232799810762421
  1
45.00°
 50
315.0
 41
0.6
 72
     1
 11
-128.4179410706835
 21
41.49851282045651
 31
0.0
100
AcDbText
  0
TEXT
  5
3435
330
A
100
AcDbEntity
  8
001
  6
Continuous
100
AcDbText
 10
-128.3849865486028
 20
41.45391027645244
 30
0.0
 40
0.0250053502430098
  1
83.5
 41
0.6
 72
     1
 11
-128.3624817333841
 21
41.45391027645244
 31
0.0
100
AcDbText
  0
LINE
  5
3436
330
A
100
AcDbEntity
  8
001
100
AcDbLine
 10
-128.4642815620664
 20
41.40283344745511
 30
0.0
 11
-128.4544316518434
 21
41.40109703650008
 31
0.0
  0
LINE
  5
3437
330
A
100
AcDbEntity
  8
001
100
AcDbLine
 10
-128.4642815620664
 20
41.40283344745511
 30
0.0
 11
-128.4544316518434
 21
41.40456985841014
 31
0.0
  0
LINE
  5
3438
330
A
100
AcDbEntity
  8
001
100
AcDbLine
 10
-128.2642815620664
 20
41.40283344745511
 30
0.0
 11
-128.2741314722894
 21
41.40456985841014
 31
0.0
  0
LINE
  5
3439
330
A
100
AcDbEntity
  8
001
100
AcDbLine
 10
-128.2642815620664
 20
41.40283344745511
 30
0.0
 11
-128.2741314722894
 21
41.40109703650007
 31
0.0
  0
LINE
  5
343A
330
A
100
AcDbEntity
  8
001
100
AcDbLine
 10
-128.4642815620664
 20
41.40283344745511
 30
0.0
 11
-128.2642815620664
 21
41.40283344745511
 31
0.0
  0
TEXT
  5
343B
330
A
100
AcDbEntity
  8
001
  6
Continuous
100
AcDbText
 10
-128.3869886761568
 20
41.40908452689322
 30
0.0
 40
0.0250053502430098
  1
φ120
 41
0.6
 72
     1
 11
-128.3602329513968
 21
41.40908452689322
 31
0.0
100
AcDbText
  0
LINE
  5
343C
330
A
100
AcDbEntity
  8
001
100
AcDbLine
 10
-128.2946982287329
 20
41.44765919701433
 30
0.0
 11
-128.3045481389559
 21
41.44592278605929
 31
0.0
  0
LINE
  5
343D
330
A
100
AcDbEntity
  8
001
100
AcDbLine
 10
-128.2946982287329
 20
41.44765919701433
 30
0.0
 11
-128.3045481389559
 21
41.44939560796936
 31
0.0
  0
LINE
  5
343E
330
A
100
AcDbEntity
  8
001
100
AcDbLine
 10
-128.4338648953997
 20
41.44765919701433
 30
0.0
 11
-128.4240149851767
 21
41.44939560796936
 31
0.0
  0
LINE
  5
343F
330
A
100
AcDbEntity
  8
001
100
AcDbLine
 10
-128.4338648953997
 20
41.44765919701433
 30
0.0
 11
-128.4240149851767
 21
41.4459227860593
 31
0.0
  0
LINE
  5
3440
330
A
100
AcDbEntity
  8
001
100
AcDbLine
 10
-128.4338648953997
 20
41.44765919701433
 30
0.0
 11
-128.2946982287329
 21
41.44765919701433
 31
0.0
  0
LINE
  5
3443
330
A
100
AcDbEntity
  8
001
100
AcDbLine
 10
-128.247796101446
 20
41.66425749743948
 30
0.0
 11
-128.2461795028468
 21
41.65508763416369
 31
0.0
  0
LINE
  5
3444
330
A
100
AcDbEntity
  8
001
100
AcDbLine
 10
-128.247796101446
 20
41.66425749743948
 30
0.0
 11
-128.2494135063287
 21
41.65508763416369
 31
0.0
  0
TEXT
  5
3445
330
A
100
AcDbEntity
  8
001
  6
Continuous
100
AcDbText
 10
-128.2170173527994
 20
41.59540440978656
 30
0.0
 40
0.0232799810762421
  1
66.7
 50
90.0
 41
0.6
 72
     1
 11
-128.2170173527994
 21
41.61635639275518
 31
0.0
100
AcDbText
  0
LINE
  5
3446
330
A
100
AcDbEntity
  8
001
100
AcDbLine
 10
-128.247796101446
 20
41.55309083077297
 30
0.0
 11
-128.247796101446
 21
41.66425749743948
 31
0.0
  0
LINE
  5
3447
330
A
100
AcDbEntity
  8
001
100
AcDbLine
 10
-128.247796101446
 20
41.55309083077297
 30
0.0
 11
-128.2494135063287
 21
41.56226069404875
 31
0.0
  0
LINE
  5
3448
330
A
100
AcDbEntity
  8
001
100
AcDbLine
 10
-128.247796101446
 20
41.55309083077297
 30
0.0
 11
-128.2461795028468
 21
41.56226069404875
 31
0.0
  0
TEXT
  5
3449
330
A
100
AcDbEntity
  8
001
  6
Continuous
100
AcDbText
 10
-128.2366386870426
 20
41.70467776685238
 30
0.0
 40
0.0250053502430098
  1
4-φ7
 41
0.6
 72
     1
 11
-128.2076324807607
 21
41.70467776685238
 31
0.0
100
AcDbText
  0
LINE
  5
344A
330
A
100
AcDbEntity
  8
001
  6
ByBlock
370
    -2
100
AcDbLine
 10
-128.2405224368422
 20
41.69842668741426
 30
0.0
 11
-128.1711760934116
 21
41.69842668741426
 31
0.0
  0
LINE
  5
344B
330
A
100
AcDbEntity
  8
001
  6
ByBlock
370
    -2
100
AcDbLine
 10
-128.2901981217301
 20
41.61238587728762
 30
0.0
 11
-128.2405224368422
 21
41.69842668741426
 31
0.0
  0
LINE
  5
344C
330
A
100
AcDbEntity
  8
001
100
AcDbLine
 10
-128.2901981217301
 20
41.61238587728762
 30
0.0
 11
-128.2837693906202
 21
41.62004794428819
 31
0.0
  0
LINE
  5
344D
330
A
100
AcDbEntity
  8
001
100
AcDbLine
 10
-128.2901981217301
 20
41.61238587728762
 30
0.0
 11
-128.2867769426171
 21
41.62178435524322
 31
0.0
  0
LINE
  5
344E
330
A
100
AcDbEntity
  8
001
100
AcDbLine
 10
-128.0601726495927
 20
41.58367416410623
 30
0.0
 11
-128.0601726495927
 21
41.63367416410622
 31
0.0
  0
LINE
  5
344F
330
A
100
AcDbEntity
  8
001
100
AcDbLine
 10
-128.0601726495927
 20
41.63367416410622
 30
0.0
 11
-128.0585560509935
 21
41.62450430083043
 31
0.0
  0
LINE
  5
3450
330
A
100
AcDbEntity
  8
001
100
AcDbLine
 10
-128.0601726495927
 20
41.63367416410622
 30
0.0
 11
-128.0617900544754
 21
41.62450430083043
 31
0.0
  0
TEXT
  5
3451
330
A
100
AcDbEntity
  8
001
  6
Continuous
100
AcDbText
 10
-128.0670273667831
 20
41.58856532743715
 30
0.0
 40
0.0232799810762421
  1
φ30
 50
90.0
 41
0.6
 72
     1
 11
-128.0670273667831
 21
41.60881891097348
 31
0.0
100
AcDbText
  0
LINE
  5
3452
330
A
100
AcDbEntity
  8
001
100
AcDbLine
 10
-128.0601726495927
 20
41.58367416410623
 30
0.0
 11
-128.0617900544754
 21
41.59284402738201
 31
0.0
  0
LINE
  5
3453
330
A
100
AcDbEntity
  8
001
100
AcDbLine
 10
-128.0601726495927
 20
41.58367416410623
 30
0.0
 11
-128.0585560509935
 21
41.59284402738201
 31
0.0
  0
TEXT
  5
3454
330
A
100
AcDbEntity
  8
001
  6
Continuous
100
AcDbText
 10
-128.2080882937787
 20
41.54573025320981
 30
0.0
 40
0.0250053502430098
  1
UNC1/4-20
 41
0.6
 72
     1
 11
-128.1468251856834
 21
41.54573025320981
 31
0.0
100
AcDbText
  0
LINE
  5
3455
330
A
100
AcDbEntity
  8
001
  6
ByBlock
370
    -2
100
AcDbLine
 10
-128.2157060775987
 20
41.53947917377171
 30
0.0
 11
-128.0656211308373
 21
41.53947917377171
 31
0.0
  0
LINE
  5
3456
330
A
100
AcDbEntity
  8
001
  6
ByBlock
370
    -2
100
AcDbLine
 10
-128.0484915881729
 20
41.60340749730572
 30
0.0
 11
-128.0656211308373
 21
41.53947917377171
 31
0.0
  0
LINE
  5
3457
330
A
100
AcDbEntity
  8
001
100
AcDbLine
 10
-128.0484915881729
 20
41.60340749730572
 30
0.0
 11
-128.0527181767177
 21
41.59434263086001
 31
0.0
  0
LINE
  5
3458
330
A
100
AcDbEntity
  8
001
100
AcDbLine
 10
-128.0484915881729
 20
41.60340749730572
 30
0.0
 11
-128.0493636883446
 21
41.59344379840944
 31
0.0
  0
LINE
  5
3459
330
A
100
AcDbEntity
  8
001
100
AcDbLine
 10
-127.9340749167775
 20
41.5199663509406
 30
0.0
 11
-127.8740749167775
 21
41.5199663509406
 31
0.0
  0
LINE
  5
345A
330
A
100
AcDbEntity
  8
001
100
AcDbLine
 10
-127.9340749167775
 20
41.5199663509406
 30
0.0
 11
-127.9242250065546
 21
41.51822993998557
 31
0.0
  0
LINE
  5
345B
330
A
100
AcDbEntity
  8
001
100
AcDbLine
 10
-127.9340749167775
 20
41.5199663509406
 30
0.0
 11
-127.9242250065546
 21
41.52170276189563
 31
0.0
  0
TEXT
  5
345C
330
A
100
AcDbEntity
  8
001
  6
Continuous
100
AcDbText
 10
-127.9175001518314
 20
41.52621743037871
 30
0.0
 40
0.0250053502430098
  1
36
 41
0.6
 72
     1
 11
-127.90499747671
 21
41.52621743037871
 31
0.0
100
AcDbText
  0
LINE
  5
345D
330
A
100
AcDbEntity
  8
001
100
AcDbLine
 10
-127.8740749167775
 20
41.5199663509406
 30
0.0
 11
-127.8839248270005
 21
41.52170276189563
 31
0.0
  0
LINE
  5
345E
330
A
100
AcDbEntity
  8
001
100
AcDbLine
 10
-127.8740749167775
 20
41.5199663509406
 30
0.0
 11
-127.8839248270005
 21
41.51822993998556
 31
0.0
  0
LINE
  5
345F
330
A
100
AcDbEntity
  8
001
100
AcDbLine
 10
-127.8274082501108
 20
41.5199663509406
 30
0.0
 11
-127.8372581603337
 21
41.51822993998556
 31
0.0
  0
LINE
  5
3460
330
A
100
AcDbEntity
  8
001
100
AcDbLine
 10
-127.8274082501108
 20
41.5199663509406
 30
0.0
 11
-127.8372581603337
 21
41.52170276189563
 31
0.0
  0
TEXT
  5
3461
330
A
100
AcDbEntity
  8
001
  6
Continuous
100
AcDbText
 10
-127.8629814586426
 20
41.52621743037871
 30
0.0
 40
0.0250053502430098
  1
28
 41
0.6
 72
     1
 11
-127.8504787835211
 21
41.52621743037871
 31
0.0
100
AcDbText
  0
LINE
  5
3462
330
A
100
AcDbEntity
  8
001
100
AcDbLine
 10
-127.8740749167775
 20
41.5199663509406
 30
0.0
 11
-127.8642250065546
 21
41.52170276189563
 31
0.0
  0
LINE
  5
3463
330
A
100
AcDbEntity
  8
001
100
AcDbLine
 10
-127.8740749167775
 20
41.5199663509406
 30
0.0
 11
-127.8642250065546
 21
41.51822993998557
 31
0.0
  0
LINE
  5
3464
330
A
100
AcDbEntity
  8
001
100
AcDbLine
 10
-127.8740749167775
 20
41.5199663509406
 30
0.0
 11
-127.8274082501108
 21
41.5199663509406
 31
0.0
  0
LINE
  5
3465
330
A
100
AcDbEntity
  8
001
100
AcDbLine
 10
-128.0435749167775
 20
41.49234729415092
 30
0.0
 11
-128.0337250065545
 21
41.4906108831959
 31
0.0
  0
LINE
  5
3466
330
A
100
AcDbEntity
  8
001
100
AcDbLine
 10
-128.0435749167775
 20
41.49234729415092
 30
0.0
 11
-128.0337250065545
 21
41.49408370510595
 31
0.0
  0
TEXT
  5
3467
330
A
100
AcDbEntity
  8
001
  6
Continuous
100
AcDbText
 10
-128.0131502680063
 20
41.49859837358903
 30
0.0
 40
0.0250053502430098
  1
130
 41
0.6
 72
     1
 11
-127.9968967903483
 21
41.49859837358903
 31
0.0
100
AcDbText
  0
LINE
  5
3468
330
A
100
AcDbEntity
  8
001
100
AcDbLine
 10
-127.8274082501108
 20
41.49234729415092
 30
0.0
 11
-127.8372581603337
 21
41.49408370510595
 31
0.0
  0
LINE
  5
3469
330
A
100
AcDbEntity
  8
001
100
AcDbLine
 10
-127.8274082501108
 20
41.49234729415092
 30
0.0
 11
-127.8372581603337
 21
41.49061088319589
 31
0.0
  0
LINE
  5
346A
330
A
100
AcDbEntity
  8
001
100
AcDbLine
 10
-128.0435749167775
 20
41.49234729415092
 30
0.0
 11
-127.8274082501108
 21
41.49234729415092
 31
0.0
  0
LINE
  5
346C
330
A
100
AcDbEntity
  8
001
100
AcDbLine
 10
-127.900023591172
 20
41.59617416438573
 30
0.0
 11
-127.8984069925729
 21
41.60534402766151
 31
0.0
  0
LINE
  5
346D
330
A
100
AcDbEntity
  8
001
100
AcDbLine
 10
-127.900023591172
 20
41.59617416438573
 30
0.0
 11
-127.9016409960547
 21
41.60534402766151
 31
0.0
  0
TEXT
  5
346E
330
A
100
AcDbEntity
  8
001
  6
Continuous
100
AcDbText
 10
-127.9030449979756
 20
41.56619265295985
 30
0.0
 40
0.0232799810762421
  1
15
 50
90.0
 41
0.6
 72
     1
 11
-127.9030449979756
 21
41.57550464539034
 31
0.0
100
AcDbText
  0
LINE
  5
346F
330
A
100
AcDbEntity
  8
001
100
AcDbLine
 10
-127.900023591172
 20
41.62117416382673
 30
0.0
 11
-127.9016409960547
 21
41.61200430055094
 31
0.0
  0
LINE
  5
3470
330
A
100
AcDbEntity
  8
001
100
AcDbLine
 10
-127.900023591172
 20
41.62117416382673
 30
0.0
 11
-127.8984069925729
 21
41.61200430055094
 31
0.0
  0
LINE
  5
3471
330
A
100
AcDbEntity
  8
001
100
AcDbLine
 10
-127.900023591172
 20
41.59617416438573
 30
0.0
 11
-127.900023591172
 21
41.62117416382673
 31
0.0
  0
LINE
  5
3480
330
A
100
AcDbEntity
  8
002
100
AcDbLine
 10
-128.5526266328803
 20
42.000699774558
 30
0.0
 11
-128.5526266328803
 21
41.96069977455801
 31
0.0
  0
LINE
  5
3481
330
A
100
AcDbEntity
  8
002
100
AcDbLine
 10
-128.5726266328802
 20
42.000699774558
 30
0.0
 11
-128.5326266328802
 21
42.000699774558
 31
0.0
  0
ENDSEC
  0
SECTION
  2
OBJECTS
  0
DICTIONARY
  5
19
330
0
100
AcDbDictionary
281
     1
  3
ACAD_COLOR
350
7BF
  3
ACAD_GROUP
350
1A
  3
ACAD_LAYOUT
350
105
  3
ACAD_MATERIAL
350
7AA
  3
ACAD_MLINESTYLE
350
1B
  3
ACAD_PLOTSETTINGS
350
106
  3
ACAD_PLOTSTYLENAME
350
76F
  3
ACAD_TABLESTYLE
350
7C0
  3
ACAD_VISUALSTYLE
350
7AE
  3
AcDbVariableDictionary
350
7A7
  3
DWGPROPS
350
83C
1001
ACAD
1000
TREAT_AS_HARD
1070
     0
  0
DICTIONARY
  5
802
330
7
100
AcDbDictionary
280
     1
281
     1
  3
ACAD_XREC_ROUNDTRIP
360
803
  0
DICTIONARY
  5
C88
330
2
100
AcDbDictionary
280
     1
281
     1
  3
ACAD_LAYERFILTERS
360
C93
  3
ACAD_LAYERSTATES
360
C89
  0
DICTIONARY
  5
806
330
14
100
AcDbDictionary
280
     1
281
     1
  3
ACAD_XREC_ROUNDTRIP
360
807
  0
DICTIONARY
  5
767
330
A
100
AcDbDictionary
280
     1
281
     1
  3
ACAD_LAYOUTSELFREF
360
804
  0
DICTIONARY
  5
769
330
B
100
AcDbDictionary
280
     1
281
     1
  3
ACAD_LAYOUTSELFREF
360
805
  0
DICTIONARY
  5
7BF
102
{ACAD_REACTORS
330
19
102
}
330
19
100
AcDbDictionary
281
     1
  0
DICTIONARY
  5
1A
102
{ACAD_REACTORS
330
19
102
}
330
19
100
AcDbDictionary
281
     1
1001
ACAD
1000
TREAT_AS_HARD
1070
     0
  0
DICTIONARY
  5
105
102
{ACAD_REACTORS
330
19
102
}
330
19
100
AcDbDictionary
281
     1
  3
Model
350
771
  3
ﾚｲｱｳﾄ1
350
772
1001
ACAD
1000
TREAT_AS_HARD
1070
     0
  0
DICTIONARY
  5
7AA
102
{ACAD_REACTORS
330
19
102
}
330
19
100
AcDbDictionary
281
     1
  3
ByBlock
350
7AC
  3
ByLayer
350
7AB
  3
Global
350
7AD
  0
DICTIONARY
  5
1B
102
{ACAD_REACTORS
330
19
102
}
330
19
100
AcDbDictionary
281
     1
  3
STANDARD
350
1C
1001
ACAD
1000
TREAT_AS_HARD
1070
     0
  0
DICTIONARY
  5
106
102
{ACAD_REACTORS
330
19
102
}
330
19
100
AcDbDictionary
281
     1
1001
ACAD
1000
TREAT_AS_HARD
1070
     0
  0
ACDBDICTIONARYWDFLT
  5
76F
102
{ACAD_REACTORS
330
19
102
}
330
19
100
AcDbDictionary
281
     1
  3
Normal
350
770
100
AcDbDictionaryWithDefault
340
770
1001
ACAD
1000
TREAT_AS_HARD
1070
     0
  0
DICTIONARY
  5
7C0
102
{ACAD_REACTORS
330
19
102
}
330
19
100
AcDbDictionary
281
     1
  3
Standard
350
7C1
  0
DICTIONARY
  5
7AE
102
{ACAD_REACTORS
330
19
102
}
330
19
100
AcDbDictionary
281
     1
  3
2dWireframe
350
7B4
  3
3D Hidden
350
7B6
  3
3dWireframe
350
7B5
  3
Basic
350
7B3
  3
Brighten
350
7BA
  3
ColorChange
350
7BE
  3
Conceptual
350
7B7
  3
Dim
350
7B9
  3
Facepattern
350
7BD
  3
Flat
350
7AF
  3
FlatWithEdges
350
7B0
  3
Gouraud
350
7B1
  3
GouraudWithEdges
350
7B2
  3
Linepattern
350
7BC
  3
Realistic
350
7B8
  3
Thicken
350
7BB
  0
DICTIONARY
  5
7A7
102
{ACAD_REACTORS
330
19
102
}
330
19
100
AcDbDictionary
281
     1
  3
CTABLESTYLE
350
824
  3
DIMASSOC
350
7A8
  3
INDEXCTL
350
826
  3
PROJECTNAME
350
835
  3
SORTENTS
350
825
  0
XRECORD
  5
83C
102
{ACAD_REACTORS
330
19
102
}
330
19
100
AcDbXrecord
280
     1
  1
DWGPROPS COOKIE
  2

  3

  4

  6

  7

  8
sendai
  9

300
=
301
=
302
=
303
=
304
=
305
=
306
=
307
=
308
=
309
=
 40
0.0323558217592593
 41
2444972.375
 42
2455449.586781504
  1

 90
        0
  0
XRECORD
  5
803
102
{ACAD_REACTORS
330
802
102
}
330
802
100
AcDbXrecord
280
     1
102
VTR_0.000_0.000_1.000_1.000_VISUALSTYLE
340
7B4
102
VTR_0.000_0.000_1.000_1.000_GRIDDISPLAY
 70
     3
102
VTR_0.000_0.000_1.000_1.000_GRIDMAJOR
 70
     5
102
VTR_0.000_0.000_1.000_1.000_DEFAULTLIGHTING
280
     1
102
VTR_0.000_0.000_1.000_1.000_DEFAULTLIGHTINGTYPE
 70
     1
102
VTR_0.000_0.000_1.000_1.000_BRIGHTNESS
141
0.0
102
VTR_0.000_0.000_1.000_1.000_CONTRAST
142
0.0
  0
DICTIONARY
  5
C93
102
{ACAD_REACTORS
330
C88
102
}
330
C88
100
AcDbDictionary
280
     1
281
     1
  0
DICTIONARY
  5
C89
102
{ACAD_REACTORS
330
C88
102
}
330
C88
100
AcDbDictionary
281
     1
  0
XRECORD
  5
807
102
{ACAD_REACTORS
330
806
102
}
330
806
100
AcDbXrecord
280
     1
102
MATERIAL
340
7AD
  0
XRECORD
  5
804
102
{ACAD_REACTORS
330
767
102
}
330
767
100
AcDbXrecord
280
     1
340
A
  0
XRECORD
  5
805
102
{ACAD_REACTORS
330
769
102
}
330
769
100
AcDbXrecord
280
     1
340
B
  0
LAYOUT
  5
771
102
{ACAD_XDICTIONARY
360
83E
102
}
102
{ACAD_REACTORS
330
105
102
}
330
105
100
AcDbPlotSettings
  1

  2
SHARP MX-2311FN SPDL2-c
  4
A4
  6
V0
 40
5.027083396911621
 41
5.027085304260253
 42
5.027084350585937
 43
5.027069091796875
 44
209.9733276367187
 45
296.9259948730469
 46
49.61
 47
93.84
 48
0.0
 49
0.0
140
42050.0
141
29700.0
142
100.0
143
1.0
 70
 11940
 72
     1
 73
     0
 74
     1
  7
プリンタ.ctb
 75
     0
147
100.0
148
-26.90582301805938
149
-37.22076443631755
100
AcDbLayout
  1
Model
 70
     1
 71
     0
 10
0.0
 20
0.0
 11
12.0
 21
9.0
 12
0.0
 22
0.0
 32
0.0
 14
0.0
 24
0.0
 34
0.0
 15
0.0
 25
0.0
 35
0.0
146
0.0
 13
0.0
 23
0.0
 33
0.0
 16
1.0
 26
0.0
 36
0.0
 17
0.0
 27
1.0
 37
0.0
 76
     0
330
A
  0
LAYOUT
  5
772
102
{ACAD_XDICTIONARY
360
840
102
}
102
{ACAD_REACTORS
330
105
102
}
330
105
100
AcDbPlotSettings
  1

  2
なし
  4

  6

 40
0.0
 41
0.0
 42
0.0
 43
0.0
 44
0.0
 45
0.0
 46
0.0
 47
0.0
 48
0.0
 49
0.0
140
0.0
141
0.0
142
1.0
143
1.0
 70
   688
 72
     0
 73
     0
 74
     5
  7
京セラレーザー.ctb
 75
    16
147
1.0
148
0.0
149
0.0
100
AcDbLayout
  1
ﾚｲｱｳﾄ1
 70
     0
 71
     1
 10
0.0
 20
0.0
 11
12.0
 21
9.0
 12
0.0
 22
0.0
 32
0.0
 14
1.000000000000000E+20
 24
1.000000000000000E+20
 34
1.000000000000000E+20
 15
-1.000000000000000E+20
 25
-1.000000000000000E+20
 35
-1.000000000000000E+20
146
0.0
 13
0.0
 23
0.0
 33
0.0
 16
1.0
 26
0.0
 36
0.0
 17
0.0
 27
1.0
 37
0.0
 76
     0
330
B
  0
ACAD_PROXY_OBJECT
  5
7AC
102
{ACAD_XDICTIONARY
360
81A
102
}
102
{ACAD_REACTORS
330
7AA
102
}
330
7AA
100
AcDbProxyObject
 90
      499
 91
      532
 95
   655383
 70
     0
 93
      574
310
41D096509313D0D2E004014040405AA6A9AA4060050101016A9AA6A9018000000000000E03F4040405AA6A9AA40650101016A9AA6A90190101016A9AA6A90194040405AA6A9AA400
 94
        0
  0
ACAD_PROXY_OBJECT
  5
7AB
102
{ACAD_XDICTIONARY
360
818
102
}
102
{ACAD_REACTORS
330
7AA
102
}
330
7AA
100
AcDbProxyObject
 90
      499
 91
      532
 95
   655383
 70
     0
 93
      574
310
41D0965310565154A004014040405AA6A9AA4060050101016A9AA6A9018000000000000E03F4040405AA6A9AA40650101016A9AA6A90190101016A9AA6A90194040405AA6A9AA400
 94
        0
  0
ACAD_PROXY_OBJECT
  5
7AD
102
{ACAD_XDICTIONARY
360
81C
102
}
102
{ACAD_REACTORS
330
7AA
102
}
330
7AA
100
AcDbProxyObject
 90
      499
 91
      532
 95
   655383
 70
     0
 93
      566
310
4191D313D090532004014040405AA6A9AA4060050101016A9AA6A9018000000000000E03F4040405AA6A9AA40650101016A9AA6A90190101016A9AA6A90194040405AA6A9AA400
 94
        0
  0
MLINESTYLE
  5
1C
102
{ACAD_REACTORS
330
1B
102
}
330
1B
100
AcDbMlineStyle
  2
STANDARD
 70
     0
  3

 62
     0
 51
90.00000000000019
 52
90.00000000000019
 71
     2
 49
0.5
 62
   256
  6
BYLAYER
 49
-0.5
 62
   256
  6
BYLAYER
  0
ACDBPLACEHOLDER
  5
770
102
{ACAD_REACTORS
330
76F
102
}
330
76F
  0
ACAD_PROXY_OBJECT
  5
7C1
102
{ACAD_XDICTIONARY
360
822
102
}
102
{ACAD_REACTORS
330
7C0
102
}
330
7C0
100
AcDbProxyObject
 90
      499
 91
      534
 95
   655383
 70
     0
 93
     1841
310
4214DD185B99185C9928B81E85EB51B8AE3F2E07A17AD46E2B8FC02B5E8DC0F42B1CFD028000000C1008070000C3001FDFF8000000C1003FBFF000000182007F7FE00000030400FEFFC00000060801FDFF8000000C1003FBFF00000018200000000000000681FA0B0000001820100E000186003FBFF000000182007F7FE000
310
00030400FEFFC00000060801FDFF8000000C1003FBFF000000182007F7FE000000304000AD7A3703D0AC73F4160000003040201C00030C007F7FE00000030400FEFFC00000060801FDFF8000000C1003FBFF000000182007F7FE00000030400FEFFC000000608000
340
17
340
17
340
17
 94
        0
  0
ACAD_PROXY_OBJECT
  5
7B4
102
{ACAD_REACTORS
330
7AE
102
}
330
7AE
100
AcDbProxyObject
 90
      499
 91
      533
 95
   655381
 70
     0
 93
      444
310
430C9915DA5C99599C985B59401049028333333333333E3BF0000000000000FB0107901411070040501600405405064090741402480A0340
 94
        0
1001
ACAD
1000
AcDbSavedByObjectVersion
1070
     0
1000
AcRTDxfName
1000
VISUALSTYLE
1000
AcRTDxfName
1000
VISUALSTYLE
  0
ACAD_PROXY_OBJECT
  5
7B6
102
{ACAD_REACTORS
330
7AE
102
}
330
7AE
100
AcDbProxyObject
 90
      499
 91
      533
 95
   655381
 70
     0
 93
      508
310
428CD108121A5919195B8010640502408333333333333E3BF0000000000000FB01079024090700405020000000000001110200405405064090740C02480A0340
 94
        0
1001
ACAD
1000
AcDbSavedByObjectVersion
1070
     0
1000
AcRTDxfName
1000
VISUALSTYLE
1000
AcRTDxfName
1000
VISUALSTYLE
  0
ACAD_PROXY_OBJECT
  5
7B5
102
{ACAD_REACTORS
330
7AE
102
}
330
7AE
100
AcDbProxyObject
 90
      499
 91
      533
 95
   655381
 70
     0
 93
      444
310
430CD915DA5C99599C985B59401059028333333333333E3BF0000000000000FB0107901411070040501600405405064090741402480A0340
 94
        0
1001
ACAD
1000
AcDbSavedByObjectVersion
1070
     0
1000
AcRTDxfName
1000
VISUALSTYLE
1000
AcRTDxfName
1000
VISUALSTYLE
  0
ACAD_PROXY_OBJECT
  5
7B3
102
{ACAD_REACTORS
330
7AE
102
}
330
7AE
100
AcDbProxyObject
 90
      499
 91
      533
 95
   655381
 70
     0
 93
      396
310
4190985CDA58C0107406404333333333333E3BF0000000000000FB0107A41107004050150841D405064090741402480A0356
 94
        0
1001
ACAD
1000
AcDbSavedByObjectVersion
1070
     0
1000
AcRTDxfName
1000
VISUALSTYLE
1000
AcRTDxfName
1000
VISUALSTYLE
  0
ACAD_PROXY_OBJECT
  5
7BA
102
{ACAD_REACTORS
330
7AE
102
}
330
7AE
100
AcDbProxyObject
 90
      499
 91
      533
 95
   655381
 70
     0
 93
      436
310
42509C9A59DA1D195B8010C409028333333333333E3BF0000000000000FB010790141107004050150841D405064090741402480A029956
 94
        0
1001
ACAD
1000
AcDbSavedByObjectVersion
1070
     0
1000
AcRTDxfName
1000
VISUALSTYLE
1000
AcRTDxfName
1000
VISUALSTYLE
  0
ACAD_PROXY_OBJECT
  5
7BE
102
{ACAD_REACTORS
330
7AE
102
}
330
7AE
100
AcDbProxyObject
 90
      499
 91
      533
 95
   655381
 70
     0
 93
      460
310
4310DBDB1BDC90DA185B99D9401104090240C333333333333E3BF0000000000000FB0108901411070040501508421405064090741402480A0354
 94
        0
1001
ACAD
1000
AcDbSavedByObjectVersion
1070
     0
1000
AcRTDxfName
1000
VISUALSTYLE
1000
AcRTDxfName
1000
VISUALSTYLE
  0
ACAD_PROXY_OBJECT
  5
7B7
102
{ACAD_REACTORS
330
7AE
102
}
330
7AE
100
AcDbProxyObject
 90
      499
 91
      533
 95
   655381
 70
     0
 93
      508
310
42D0DBDB98D95C1D1D585B0010940D028333333333333E3BF0000000000000FB0107902409070040501000000000000111010841D405064090740C02480A0340
 94
        0
1001
ACAD
1000
AcDbSavedByObjectVersion
1070
     0
1000
AcRTDxfName
1000
VISUALSTYLE
1000
AcRTDxfName
1000
VISUALSTYLE
  0
ACAD_PROXY_OBJECT
  5
7B9
102
{ACAD_REACTORS
330
7AE
102
}
330
7AE
100
AcDbProxyObject
 90
      499
 91
      533
 95
   655381
 70
     0
 93
      420
310
41111A5B4010B409028333333333333E3BF0000000000000FB010790141107004050150841D405064090741402480A02677FFFFFDB
 94
        0
1001
ACAD
1000
AcDbSavedByObjectVersion
1070
     0
1000
AcRTDxfName
1000
VISUALSTYLE
1000
AcRTDxfName
1000
VISUALSTYLE
  0
ACAD_PROXY_OBJECT
  5
7BD
102
{ACAD_REACTORS
330
7AE
102
}
330
7AE
100
AcDbProxyObject
 90
      499
 91
      533
 95
   655381
 70
     0
 93
      452
310
43119858D95C185D1D195C9B8010F409028333333333333E3BF0000000000000FB010790141107004050150841D405064090741402480A0350
 94
        0
1001
ACAD
1000
AcDbSavedByObjectVersion
1070
     0
1000
AcRTDxfName
1000
VISUALSTYLE
1000
AcRTDxfName
1000
VISUALSTYLE
  0
ACAD_PROXY_OBJECT
  5
7AF
102
{ACAD_REACTORS
330
7AE
102
}
330
7AE
100
AcDbProxyObject
 90
      499
 91
      533
 95
   655381
 70
     0
 93
      396
310
41519B185D00240901404333333333333E3BF0000000000000F9010740A41107004050150841D405064090741402480A1B50
 94
        0
1001
ACAD
1000
AcDbSavedByObjectVersion
1070
     0
1000
AcRTDxfName
1000
VISUALSTYLE
1000
AcRTDxfName
1000
VISUALSTYLE
  0
ACAD_PROXY_OBJECT
  5
7B0
102
{ACAD_REACTORS
330
7AE
102
}
330
7AE
100
AcDbProxyObject
 90
      499
 91
      533
 95
   655381
 70
     0
 93
      484
310
43919B185D15DA5D1A115919D95CC010140901404333333333333E3BF0000000000000F9010740901411070040501600405405064090741402480A1B50
 94
        0
1001
ACAD
1000
AcDbSavedByObjectVersion
1070
     0
1000
AcRTDxfName
1000
VISUALSTYLE
1000
AcRTDxfName
1000
VISUALSTYLE
  0
ACAD_PROXY_OBJECT
  5
7B1
102
{ACAD_REACTORS
330
7AE
102
}
330
7AE
100
AcDbProxyObject
 90
      499
 91
      533
 95
   655381
 70
     0
 93
      420
310
4211DBDD5C985D590010240902404333333333333E3BF0000000000000F9010740A411070040501641D405064090741402480A1B50
 94
        0
1001
ACAD
1000
AcDbSavedByObjectVersion
1070
     0
1000
AcRTDxfName
1000
VISUALSTYLE
1000
AcRTDxfName
1000
VISUALSTYLE
  0
ACAD_PROXY_OBJECT
  5
7B2
102
{ACAD_REACTORS
330
7AE
102
}
330
7AE
100
AcDbProxyObject
 90
      499
 91
      533
 95
   655381
 70
     0
 93
      508
310
4451DBDD5C985D5915DA5D1A115919D95CC010340902404333333333333E3BF0000000000000F9010740901411070040501600405405064090741402480A1B50
 94
        0
1001
ACAD
1000
AcDbSavedByObjectVersion
1070
     0
1000
AcRTDxfName
1000
VISUALSTYLE
1000
AcRTDxfName
1000
VISUALSTYLE
  0
ACAD_PROXY_OBJECT
  5
7BC
102
{ACAD_REACTORS
330
7AE
102
}
330
7AE
100
AcDbProxyObject
 90
      499
 91
      533
 95
   655381
 70
     0
 93
      452
310
43131A5B995C185D1D195C9B8010E409028333333333333E3BF0000000000000FB010790141107004050750841D405064090741402483A0350
 94
        0
1001
ACAD
1000
AcDbSavedByObjectVersion
1070
     0
1000
AcRTDxfName
1000
VISUALSTYLE
1000
AcRTDxfName
1000
VISUALSTYLE
  0
ACAD_PROXY_OBJECT
  5
7B8
102
{ACAD_REACTORS
330
7AE
102
}
330
7AE
100
AcDbProxyObject
 90
      499
 91
      533
 95
   655381
 70
     0
 93
      428
310
429499585B1A5CDD1A58C0108409028333333333333E3BF0000000000000FB01079019070040501508421405064090741402480A1B45
 94
        0
1001
ACAD
1000
AcDbSavedByObjectVersion
1070
     0
1000
AcRTDxfName
1000
VISUALSTYLE
1000
AcRTDxfName
1000
VISUALSTYLE
  0
ACAD_PROXY_OBJECT
  5
7BB
102
{ACAD_REACTORS
330
7AE
102
}
330
7AE
100
AcDbProxyObject
 90
      499
 91
      533
 95
   655381
 70
     0
 93
      420
310
42151A1A58DAD95B8010D409028333333333333E3BF0000000000000FB010790141107004050150C41D405064090741402480A0352
 94
        0
1001
ACAD
1000
AcDbSavedByObjectVersion
1070
     0
1000
AcRTDxfName
1000
VISUALSTYLE
1000
AcRTDxfName
1000
VISUALSTYLE
  0
DICTIONARYVAR
  5
824
102
{ACAD_REACTORS
330
7A7
102
}
330
7A7
100
DictionaryVariables
280
     0
  1
STANDARD
  0
DICTIONARYVAR
  5
7A8
102
{ACAD_REACTORS
330
7A7
102
}
330
7A7
100
DictionaryVariables
280
     0
  1
1
  0
DICTIONARYVAR
  5
826
102
{ACAD_REACTORS
330
7A7
102
}
330
7A7
100
DictionaryVariables
280
     0
  1
0
  0
DICTIONARYVAR
  5
835
102
{ACAD_REACTORS
330
7A7
102
}
330
7A7
100
DictionaryVariables
280
     0
  1

  0
DICTIONARYVAR
  5
825
102
{ACAD_REACTORS
330
7A7
102
}
330
7A7
100
DictionaryVariables
280
     0
  1
127
  0
DICTIONARY
  5
83E
330
771
100
AcDbDictionary
280
     1
281
     1
  3
ACAD_XREC_ROUNDTRIP
360
83F
  0
DICTIONARY
  5
840
330
772
100
AcDbDictionary
280
     1
281
     1
  3
ACAD_XREC_ROUNDTRIP
360
841
  0
DICTIONARY
  5
81A
330
7AC
100
AcDbDictionary
280
     1
281
     1
  3
ACAD_XREC_ROUNDTRIP
360
81B
  0
DICTIONARY
  5
818
330
7AB
100
AcDbDictionary
280
     1
281
     1
  3
ACAD_XREC_ROUNDTRIP
360
819
  0
DICTIONARY
  5
81C
330
7AD
100
AcDbDictionary
280
     1
281
     1
  3
ACAD_XREC_ROUNDTRIP
360
81D
  0
DICTIONARY
  5
822
330
7C1
100
AcDbDictionary
280
     1
281
     1
  3
ACAD_XREC_ROUNDTRIP
360
823
  0
XRECORD
  5
83F
102
{ACAD_REACTORS
330
83E
102
}
330
83E
100
AcDbXrecord
280
     1
102
SHADEPLOT
 70
     0
102
SHADEPLOTRESLEVEL
 70
     2
102
SHADEPLOTCUSTOMDPI
 70
   300
  0
XRECORD
  5
841
102
{ACAD_REACTORS
330
840
102
}
330
840
100
AcDbXrecord
280
     1
102
SHADEPLOT
 70
     0
102
SHADEPLOTRESLEVEL
 70
     2
102
SHADEPLOTCUSTOMDPI
 70
   300
  0
XRECORD
  5
81B
102
{ACAD_REACTORS
330
81A
102
}
330
81A
100
AcDbXrecord
280
     1
102
MATERIAL
148
0.0
149
0.0
149
0.0
 93
        0
 94
       63
282
     0
 72
     1
 77
     1
171
     1
175
     1
179
     1
273
     0
  0
XRECORD
  5
819
102
{ACAD_REACTORS
330
818
102
}
330
818
100
AcDbXrecord
280
     1
102
MATERIAL
148
0.0
149
0.0
149
0.0
 93
        0
 94
       63
282
     0
 72
     1
 77
     1
171
     1
175
     1
179
     1
273
     0
  0
XRECORD
  5
81D
102
{ACAD_REACTORS
330
81C
102
}
330
81C
100
AcDbXrecord
280
     1
102
MATERIAL
148
0.0
149
0.0
149
0.0
 93
        0
 94
       63
282
     0
 72
     1
 77
     1
171
     1
175
     1
179
     1
273
     0
  0
XRECORD
  5
823
102
{ACAD_REACTORS
330
822
102
}
330
822
100
AcDbXrecord
280
     1
102
ACAD_ROUNDTRIP_PRE2007_TABLESTYLE
 90
      512
 91
        0
  1

 92
      512
 93
        0
  2

 94
      512
 95
        0
  3

  0
ENDSEC
  0
EOF
